  0
SECTION
  2
HEADER
  9
$ACADVER
  1
AC1021
  9
$ACADMAINTVER
 70
    25
  9
$DWGCODEPAGE
  3
UNDEFINED
  9
$INSBASE
 10
0.0
 20
0.0
 30
0.0
  9
$EXTMIN
 10
1.000000000000000E+20
 20
1.000000000000000E+20
 30
1.000000000000000E+20
  9
$EXTMAX
 10
-1.000000000000000E+20
 20
-1.000000000000000E+20
 30
-1.000000000000000E+20
  9
$LIMMIN
 10
0.0
 20
0.0
  9
$LIMMAX
 10
12.0
 20
9.0
  9
$ORTHOMODE
 70
     0
  9
$REGENMODE
 70
     1
  9
$FILLMODE
 70
     1
  9
$QTEXTMODE
 70
     0
  9
$MIRRTEXT
 70
     1
  9
$LTSCALE
 40
1.0
  9
$ATTMODE
 70
     1
  9
$TEXTSIZE
 40
0.2
  9
$TRACEWID
 40
0.05
  9
$TEXTSTYLE
  7
Standard
  9
$CLAYER
  8
0
  9
$CELTYPE
  6
ByLayer
  9
$CECOLOR
 62
   256
  9
$CELTSCALE
 40
1.0
  9
$DISPSILH
 70
     0
  9
$DIMSCALE
 40
1.0
  9
$DIMASZ
 40
0.18
  9
$DIMEXO
 40
0.0625
  9
$DIMDLI
 40
0.38
  9
$DIMRND
 40
0.0
  9
$DIMDLE
 40
0.0
  9
$DIMEXE
 40
0.18
  9
$DIMTP
 40
0.0
  9
$DIMTM
 40
0.0
  9
$DIMTXT
 40
0.18
  9
$DIMCEN
 40
0.09
  9
$DIMTSZ
 40
0.0
  9
$DIMTOL
 70
     0
  9
$DIMLIM
 70
     0
  9
$DIMTIH
 70
     1
  9
$DIMTOH
 70
     1
  9
$DIMSE1
 70
     0
  9
$DIMSE2
 70
     0
  9
$DIMTAD
 70
     0
  9
$DIMZIN
 70
     0
  9
$DIMBLK
  1

  9
$DIMASO
 70
     1
  9
$DIMSHO
 70
     1
  9
$DIMPOST
  1

  9
$DIMAPOST
  1

  9
$DIMALT
 70
     0
  9
$DIMALTD
 70
     2
  9
$DIMALTF
 40
25.4
  9
$DIMLFAC
 40
1.0
  9
$DIMTOFL
 70
     0
  9
$DIMTVP
 40
0.0
  9
$DIMTIX
 70
     0
  9
$DIMSOXD
 70
     0
  9
$DIMSAH
 70
     0
  9
$DIMBLK1
  1

  9
$DIMBLK2
  1

  9
$DIMSTYLE
  2
Standard
  9
$DIMCLRD
 70
     0
  9
$DIMCLRE
 70
     0
  9
$DIMCLRT
 70
     0
  9
$DIMTFAC
 40
1.0
  9
$DIMGAP
 40
0.09
  9
$DIMJUST
 70
     0
  9
$DIMSD1
 70
     0
  9
$DIMSD2
 70
     0
  9
$DIMTOLJ
 70
     1
  9
$DIMTZIN
 70
     0
  9
$DIMALTZ
 70
     0
  9
$DIMALTTZ
 70
     0
  9
$DIMUPT
 70
     0
  9
$DIMDEC
 70
     4
  9
$DIMTDEC
 70
     4
  9
$DIMALTU
 70
     2
  9
$DIMALTTD
 70
     2
  9
$DIMTXSTY
  7
Standard
  9
$DIMAUNIT
 70
     0
  9
$DIMADEC
 70
     0
  9
$DIMALTRND
 40
0.0
  9
$DIMAZIN
 70
     0
  9
$DIMDSEP
 70
    46
  9
$DIMATFIT
 70
     3
  9
$DIMFRAC
 70
     0
  9
$DIMLDRBLK
  1

  9
$DIMLUNIT
 70
     2
  9
$DIMLWD
 70
    -2
  9
$DIMLWE
 70
    -2
  9
$DIMTMOVE
 70
     0
  9
$DIMFXL
 40
1.0
  9
$DIMFXLON
 70
     0
  9
$DIMJOGANG
 40
0.7853981633974483
  9
$DIMTFILL
 70
     0
  9
$DIMTFILLCLR
 70
     0
  9
$DIMARCSYM
 70
     0
  9
$DIMLTYPE
  6

  9
$DIMLTEX1
  6

  9
$DIMLTEX2
  6

  9
$LUNITS
 70
     2
  9
$LUPREC
 70
     4
  9
$SKETCHINC
 40
0.1
  9
$FILLETRAD
 40
0.5
  9
$AUNITS
 70
     0
  9
$AUPREC
 70
     0
  9
$MENU
  1
.
  9
$ELEVATION
 40
0.0
  9
$PELEVATION
 40
0.0
  9
$THICKNESS
 40
0.0
  9
$LIMCHECK
 70
     0
  9
$CHAMFERA
 40
0.5
  9
$CHAMFERB
 40
0.5
  9
$CHAMFERC
 40
1.0
  9
$CHAMFERD
 40
0.0
  9
$SKPOLY
 70
     0
  9
$TDCREATE
 40
2459352.624097211
  9
$TDUCREATE
 40
2459352.874097222
  9
$TDUPDATE
 40
2459352.624097211
  9
$TDUUPDATE
 40
2459352.874097222
  9
$TDINDWG
 40
0.0000000116
  9
$TDUSRTIMER
 40
0.0000000116
  9
$USRTIMER
 70
     1
  9
$ANGBASE
 50
0.0
  9
$ANGDIR
 70
     0
  9
$PDMODE
 70
     0
  9
$PDSIZE
 40
0.0
  9
$PLINEWID
 40
0.0
  9
$SPLFRAME
 70
     0
  9
$SPLINETYPE
 70
     6
  9
$SPLINESEGS
 70
     8
  9
$HANDSEED
  5
2D3
  9
$SURFTAB1
 70
     6
  9
$SURFTAB2
 70
     6
  9
$SURFTYPE
 70
     6
  9
$SURFU
 70
     6
  9
$SURFV
 70
     6
  9
$UCSBASE
  2

  9
$UCSNAME
  2

  9
$UCSORG
 10
0.0
 20
0.0
 30
0.0
  9
$UCSXDIR
 10
1.0
 20
0.0
 30
0.0
  9
$UCSYDIR
 10
0.0
 20
1.0
 30
0.0
  9
$UCSORTHOREF
  2

  9
$UCSORTHOVIEW
 70
     0
  9
$UCSORGTOP
 10
0.0
 20
0.0
 30
0.0
  9
$UCSORGBOTTOM
 10
0.0
 20
0.0
 30
0.0
  9
$UCSORGLEFT
 10
0.0
 20
0.0
 30
0.0
  9
$UCSORGRIGHT
 10
0.0
 20
0.0
 30
0.0
  9
$UCSORGFRONT
 10
0.0
 20
0.0
 30
0.0
  9
$UCSORGBACK
 10
0.0
 20
0.0
 30
0.0
  9
$PUCSBASE
  2

  9
$PUCSNAME
  2

  9
$PUCSORG
 10
0.0
 20
0.0
 30
0.0
  9
$PUCSXDIR
 10
1.0
 20
0.0
 30
0.0
  9
$PUCSYDIR
 10
0.0
 20
1.0
 30
0.0
  9
$PUCSORTHOREF
  2

  9
$PUCSORTHOVIEW
 70
     0
  9
$PUCSORGTOP
 10
0.0
 20
0.0
 30
0.0
  9
$PUCSORGBOTTOM
 10
0.0
 20
0.0
 30
0.0
  9
$PUCSORGLEFT
 10
0.0
 20
0.0
 30
0.0
  9
$PUCSORGRIGHT
 10
0.0
 20
0.0
 30
0.0
  9
$PUCSORGFRONT
 10
0.0
 20
0.0
 30
0.0
  9
$PUCSORGBACK
 10
0.0
 20
0.0
 30
0.0
  9
$USERI1
 70
     0
  9
$USERI2
 70
     0
  9
$USERI3
 70
     0
  9
$USERI4
 70
     0
  9
$USERI5
 70
     0
  9
$USERR1
 40
0.0
  9
$USERR2
 40
0.0
  9
$USERR3
 40
0.0
  9
$USERR4
 40
0.0
  9
$USERR5
 40
0.0
  9
$WORLDVIEW
 70
     1
  9
$SHADEDGE
 70
     3
  9
$SHADEDIF
 70
    70
  9
$TILEMODE
 70
     1
  9
$MAXACTVP
 70
    64
  9
$PINSBASE
 10
0.0
 20
0.0
 30
0.0
  9
$PLIMCHECK
 70
     0
  9
$PEXTMIN
 10
1.000000000000000E+20
 20
1.000000000000000E+20
 30
1.000000000000000E+20
  9
$PEXTMAX
 10
-1.000000000000000E+20
 20
-1.000000000000000E+20
 30
-1.000000000000000E+20
  9
$PLIMMIN
 10
0.0
 20
0.0
  9
$PLIMMAX
 10
12.0
 20
9.0
  9
$UNITMODE
 70
     0
  9
$VISRETAIN
 70
     1
  9
$PLINEGEN
 70
     0
  9
$PSLTSCALE
 70
     1
  9
$TREEDEPTH
 70
  3020
  9
$CMLSTYLE
  2
Standard
  9
$CMLJUST
 70
     0
  9
$CMLSCALE
 40
1.0
  9
$PROXYGRAPHICS
 70
     1
  9
$MEASUREMENT
 70
     0
  9
$CELWEIGHT
370
    -1
  9
$ENDCAPS
280
     0
  9
$JOINSTYLE
280
     0
  9
$LWDISPLAY
290
     1
  9
$INSUNITS
 70
     4
  9
$HYPERLINKBASE
  1

  9
$STYLESHEET
  1

  9
$XEDIT
290
     1
  9
$CEPSNTYPE
380
     0
  9
$PSTYLEMODE
290
     1
  9
$FINGERPRINTGUID
  2
{0FE4DB36-3A55-B52A-A5F9-9C5C7F589542}
  9
$VERSIONGUID
  2
{FAEB1C32-E019-11D5-929B-00C0DF256EC4}
  9
$EXTNAMES
290
     1
  9
$PSVPSCALE
 40
0.0
  9
$OLESTARTUP
290
     0
  9
$SORTENTS
280
   127
  9
$INDEXCTL
280
     0
  9
$HIDETEXT
280
     1
  9
$XCLIPFRAME
290
     0
  9
$HALOGAP
280
     0
  9
$OBSCOLOR
 70
   257
  9
$OBSLTYPE
280
     0
  9
$INTERSECTIONDISPLAY
280
     0
  9
$INTERSECTIONCOLOR
 70
   257
  9
$DIMASSOC
280
     2
  9
$PROJECTNAME
  1

  9
$CAMERADISPLAY
290
     0
  9
$LENSLENGTH
 40
50.0
  9
$CAMERAHEIGHT
 40
0.0
  9
$STEPSPERSEC
 40
2.0
  9
$STEPSIZE
 40
6.0
  9
$3DDWFPREC
 40
2.0
  9
$PSOLWIDTH
 40
0.25
  9
$PSOLHEIGHT
 40
4.0
  9
$LOFTANG1
 40
1.570796326794897
  9
$LOFTANG2
 40
1.570796326794897
  9
$LOFTMAG1
 40
0.0
  9
$LOFTMAG2
 40
0.0
  9
$LOFTPARAM
 70
     7
  9
$LOFTNORMALS
280
     1
  9
$LATITUDE
 40
37.795
  9
$LONGITUDE
 40
-122.394
  9
$NORTHDIRECTION
 40
0.0
  9
$TIMEZONE
 70
 -8000
  9
$LIGHTGLYPHDISPLAY
280
     1
  9
$TILEMODELIGHTSYNCH
280
     1
  9
$CMATERIAL
347
3C
  9
$SOLIDHIST
280
     1
  9
$SHOWHIST
280
     1
  9
$DWFFRAME
280
     2
  9
$DGNFRAME
280
     2
  9
$REALWORLDSCALE
290
     1
  9
$INTERFERECOLOR
 62
   256
  9
$CSHADOW
280
     0
  9
$SHADOWPLANELOCATION
 40
0.0
  0
ENDSEC
  0
SECTION
  2
CLASSES
  0
CLASS
  1
ACDBDICTIONARYWDFLT
  2
AcDbDictionaryWithDefault
  3
ObjectDBX Classes
 90
        0
 91
        4
280
     0
281
     0
  0
CLASS
  1
VISUALSTYLE
  2
AcDbVisualStyle
  3
ObjectDBX Classes
 90
     4095
 91
        4
280
     0
281
     0
  0
CLASS
  1
MATERIAL
  2
AcDbMaterial
  3
ObjectDBX Classes
 90
     1153
 91
        4
280
     0
281
     0
  0
CLASS
  1
SUN
  2
AcDbSun
  3
SCENEOE
 90
     1024
 91
        4
280
     0
281
     0
  0
ENDSEC
  0
SECTION
  2
TABLES
  0
TABLE
  2
VPORT
  5
8
330
0
100
AcDbSymbolTable
 70
     1
  0
VPORT
  5
29
330
8
100
AcDbSymbolTableRecord
100
AcDbViewportTableRecord
  2
*Active
 70
     0
 10
0.0
 20
0.0
 11
1.0
 21
1.0
 12
0.0
 22
0.0
 13
0.0
 23
0.0
 14
0.5
 24
0.5
 15
0.5
 25
0.5
 16
0.0
 26
0.0
 36
1.0
 17
239.1522783067463
 27
129.7929051511937
 37
0.0
 40
892.3111097167462
 41
1.431296587644778
 42
50.0
 43
0.0
 44
0.0
 50
0.0
 51
0.0
 71
     0
 72
   100
 73
     1
 74
     3
 75
     0
 76
     0
 77
     0
 78
     0
281
     0
 65
     1
110
0.0
120
0.0
130
0.0
111
1.0
121
0.0
131
0.0
112
0.0
122
1.0
132
0.0
 79
     0
146
0.0
 60
     3
 61
     5
292
     1
282
     1
141
0.0
142
0.0
 63
   250
361
3F
  0
ENDTAB
  0
TABLE
  2
LTYPE
  5
5
330
0
100
AcDbSymbolTable
 70
     1
  0
LTYPE
  5
14
330
5
100
AcDbSymbolTableRecord
100
AcDbLinetypeTableRecord
  2
ByBlock
 70
     0
  3

 72
    65
 73
     0
 40
0.0
  0
LTYPE
  5
15
330
5
100
AcDbSymbolTableRecord
100
AcDbLinetypeTableRecord
  2
ByLayer
 70
     0
  3

 72
    65
 73
     0
 40
0.0
  0
LTYPE
  5
16
330
5
100
AcDbSymbolTableRecord
100
AcDbLinetypeTableRecord
  2
Continuous
 70
     0
  3
Solid line
 72
    65
 73
     0
 40
0.0
  0
ENDTAB
  0
TABLE
  2
LAYER
  5
2
330
0
100
AcDbSymbolTable
 70
     1
  0
LAYER
  5
10
330
2
100
AcDbSymbolTableRecord
100
AcDbLayerTableRecord
  2
0
 70
     0
 62
     7
  6
Continuous
370
    -3
390
F
347
3E
  0
ENDTAB
  0
TABLE
  2
STYLE
  5
3
330
0
100
AcDbSymbolTable
 70
     1
  0
STYLE
  5
11
330
3
100
AcDbSymbolTableRecord
100
AcDbTextStyleTableRecord
  2
Standard
 70
     0
 40
0.0
 41
1.0
 50
0.0
 71
     0
 42
0.2
  3
txt
  4

  0
ENDTAB
  0
TABLE
  2
VIEW
  5
6
330
0
100
AcDbSymbolTable
 70
     0
  0
ENDTAB
  0
TABLE
  2
UCS
  5
7
330
0
100
AcDbSymbolTable
 70
     0
  0
ENDTAB
  0
TABLE
  2
APPID
  5
9
330
0
100
AcDbSymbolTable
 70
     1
  0
APPID
  5
12
330
9
100
AcDbSymbolTableRecord
100
AcDbRegAppTableRecord
  2
ACAD
 70
     0
  0
ENDTAB
  0
TABLE
  2
DIMSTYLE
  5
A
330
0
100
AcDbSymbolTable
 70
     1
100
AcDbDimStyleTable
  0
DIMSTYLE
105
27
330
A
100
AcDbSymbolTableRecord
100
AcDbDimStyleTableRecord
  2
Standard
 70
     0
178
     0
340
11
  0
ENDTAB
  0
TABLE
  2
BLOCK_RECORD
  5
1
330
0
100
AcDbSymbolTable
 70
   108
  0
BLOCK_RECORD
  5
1F
330
1
100
AcDbSymbolTableRecord
100
AcDbBlockTableRecord
  2
*Model_Space
340
22
 70
     0
280
     1
281
     0
  0
BLOCK_RECORD
  5
1B
330
1
100
AcDbSymbolTableRecord
100
AcDbBlockTableRecord
  2
*Paper_Space
340
1E
 70
     0
280
     1
281
     0
  0
BLOCK_RECORD
  5
23
330
1
100
AcDbSymbolTableRecord
100
AcDbBlockTableRecord
  2
*Paper_Space0
340
26
 70
     0
280
     1
281
     0
  0
BLOCK_RECORD
  5
40
330
1
100
AcDbSymbolTableRecord
100
AcDbBlockTableRecord
  2
block 2
340
0
102
{BLKREFS
331
41
102
}
 70
     0
280
     1
281
     0
  0
BLOCK_RECORD
  5
48
330
1
100
AcDbSymbolTableRecord
100
AcDbBlockTableRecord
  2
block 3
340
0
102
{BLKREFS
331
49
102
}
 70
     0
280
     1
281
     0
  0
BLOCK_RECORD
  5
50
330
1
100
AcDbSymbolTableRecord
100
AcDbBlockTableRecord
  2
block 4
340
0
102
{BLKREFS
331
51
102
}
 70
     0
280
     1
281
     0
  0
BLOCK_RECORD
  5
58
330
1
100
AcDbSymbolTableRecord
100
AcDbBlockTableRecord
  2
block 5
340
0
102
{BLKREFS
331
59
102
}
 70
     0
280
     1
281
     0
  0
BLOCK_RECORD
  5
5D
330
1
100
AcDbSymbolTableRecord
100
AcDbBlockTableRecord
  2
block 6
340
0
102
{BLKREFS
331
5E
102
}
 70
     0
280
     1
281
     0
  0
BLOCK_RECORD
  5
62
330
1
100
AcDbSymbolTableRecord
100
AcDbBlockTableRecord
  2
block 7
340
0
102
{BLKREFS
331
63
102
}
 70
     0
280
     1
281
     0
  0
BLOCK_RECORD
  5
67
330
1
100
AcDbSymbolTableRecord
100
AcDbBlockTableRecord
  2
block 8
340
0
102
{BLKREFS
331
68
102
}
 70
     0
280
     1
281
     0
  0
BLOCK_RECORD
  5
6C
330
1
100
AcDbSymbolTableRecord
100
AcDbBlockTableRecord
  2
block 9
340
0
102
{BLKREFS
331
6D
102
}
 70
     0
280
     1
281
     0
  0
BLOCK_RECORD
  5
71
330
1
100
AcDbSymbolTableRecord
100
AcDbBlockTableRecord
  2
block 10
340
0
102
{BLKREFS
331
72
102
}
 70
     0
280
     1
281
     0
  0
BLOCK_RECORD
  5
76
330
1
100
AcDbSymbolTableRecord
100
AcDbBlockTableRecord
  2
block 11
340
0
102
{BLKREFS
331
77
102
}
 70
     0
280
     1
281
     0
  0
BLOCK_RECORD
  5
7E
330
1
100
AcDbSymbolTableRecord
100
AcDbBlockTableRecord
  2
block 12
340
0
102
{BLKREFS
331
7F
102
}
 70
     0
280
     1
281
     0
  0
BLOCK_RECORD
  5
83
330
1
100
AcDbSymbolTableRecord
100
AcDbBlockTableRecord
  2
block 13
340
0
102
{BLKREFS
331
84
102
}
 70
     0
280
     1
281
     0
  0
BLOCK_RECORD
  5
88
330
1
100
AcDbSymbolTableRecord
100
AcDbBlockTableRecord
  2
block 14
340
0
102
{BLKREFS
331
89
102
}
 70
     0
280
     1
281
     0
  0
BLOCK_RECORD
  5
8D
330
1
100
AcDbSymbolTableRecord
100
AcDbBlockTableRecord
  2
block 15
340
0
102
{BLKREFS
331
8E
102
}
 70
     0
280
     1
281
     0
  0
BLOCK_RECORD
  5
92
330
1
100
AcDbSymbolTableRecord
100
AcDbBlockTableRecord
  2
block 16
340
0
102
{BLKREFS
331
93
102
}
 70
     0
280
     1
281
     0
  0
BLOCK_RECORD
  5
9A
330
1
100
AcDbSymbolTableRecord
100
AcDbBlockTableRecord
  2
block 17
340
0
102
{BLKREFS
331
9B
102
}
 70
     0
280
     1
281
     0
  0
BLOCK_RECORD
  5
9F
330
1
100
AcDbSymbolTableRecord
100
AcDbBlockTableRecord
  2
block 18
340
0
102
{BLKREFS
331
A0
102
}
 70
     0
280
     1
281
     0
  0
BLOCK_RECORD
  5
A4
330
1
100
AcDbSymbolTableRecord
100
AcDbBlockTableRecord
  2
block 19
340
0
102
{BLKREFS
331
A5
102
}
 70
     0
280
     1
281
     0
  0
BLOCK_RECORD
  5
A9
330
1
100
AcDbSymbolTableRecord
100
AcDbBlockTableRecord
  2
block 20
340
0
102
{BLKREFS
331
AA
102
}
 70
     0
280
     1
281
     0
  0
BLOCK_RECORD
  5
AE
330
1
100
AcDbSymbolTableRecord
100
AcDbBlockTableRecord
  2
block 21
340
0
102
{BLKREFS
331
AF
102
}
 70
     0
280
     1
281
     0
  0
BLOCK_RECORD
  5
B3
330
1
100
AcDbSymbolTableRecord
100
AcDbBlockTableRecord
  2
block 22
340
0
102
{BLKREFS
331
B4
102
}
 70
     0
280
     1
281
     0
  0
BLOCK_RECORD
  5
B8
330
1
100
AcDbSymbolTableRecord
100
AcDbBlockTableRecord
  2
block 23
340
0
102
{BLKREFS
331
B9
102
}
 70
     0
280
     1
281
     0
  0
BLOCK_RECORD
  5
BD
330
1
100
AcDbSymbolTableRecord
100
AcDbBlockTableRecord
  2
block 24
340
0
102
{BLKREFS
331
BE
102
}
 70
     0
280
     1
281
     0
  0
BLOCK_RECORD
  5
C5
330
1
100
AcDbSymbolTableRecord
100
AcDbBlockTableRecord
  2
block 25
340
0
102
{BLKREFS
331
C6
102
}
 70
     0
280
     1
281
     0
  0
BLOCK_RECORD
  5
CD
330
1
100
AcDbSymbolTableRecord
100
AcDbBlockTableRecord
  2
block 26
340
0
102
{BLKREFS
331
CE
102
}
 70
     0
280
     1
281
     0
  0
BLOCK_RECORD
  5
D5
330
1
100
AcDbSymbolTableRecord
100
AcDbBlockTableRecord
  2
block 27
340
0
102
{BLKREFS
331
D6
102
}
 70
     0
280
     1
281
     0
  0
BLOCK_RECORD
  5
DA
330
1
100
AcDbSymbolTableRecord
100
AcDbBlockTableRecord
  2
block 28
340
0
102
{BLKREFS
331
DB
102
}
 70
     0
280
     1
281
     0
  0
BLOCK_RECORD
  5
E2
330
1
100
AcDbSymbolTableRecord
100
AcDbBlockTableRecord
  2
block 29
340
0
102
{BLKREFS
331
E3
102
}
 70
     0
280
     1
281
     0
  0
BLOCK_RECORD
  5
E7
330
1
100
AcDbSymbolTableRecord
100
AcDbBlockTableRecord
  2
block 30
340
0
102
{BLKREFS
331
E8
102
}
 70
     0
280
     1
281
     0
  0
BLOCK_RECORD
  5
EC
330
1
100
AcDbSymbolTableRecord
100
AcDbBlockTableRecord
  2
block 31
340
0
102
{BLKREFS
331
ED
102
}
 70
     0
280
     1
281
     0
  0
BLOCK_RECORD
  5
F1
330
1
100
AcDbSymbolTableRecord
100
AcDbBlockTableRecord
  2
block 32
340
0
102
{BLKREFS
331
F2
102
}
 70
     0
280
     1
281
     0
  0
BLOCK_RECORD
  5
F6
330
1
100
AcDbSymbolTableRecord
100
AcDbBlockTableRecord
  2
block 33
340
0
102
{BLKREFS
331
F7
102
}
 70
     0
280
     1
281
     0
  0
BLOCK_RECORD
  5
FE
330
1
100
AcDbSymbolTableRecord
100
AcDbBlockTableRecord
  2
block 34
340
0
102
{BLKREFS
331
FF
102
}
 70
     0
280
     1
281
     0
  0
BLOCK_RECORD
  5
103
330
1
100
AcDbSymbolTableRecord
100
AcDbBlockTableRecord
  2
block 35
340
0
102
{BLKREFS
331
104
102
}
 70
     0
280
     1
281
     0
  0
BLOCK_RECORD
  5
10B
330
1
100
AcDbSymbolTableRecord
100
AcDbBlockTableRecord
  2
block 36
340
0
102
{BLKREFS
331
10C
102
}
 70
     0
280
     1
281
     0
  0
BLOCK_RECORD
  5
110
330
1
100
AcDbSymbolTableRecord
100
AcDbBlockTableRecord
  2
block 37
340
0
102
{BLKREFS
331
111
102
}
 70
     0
280
     1
281
     0
  0
BLOCK_RECORD
  5
118
330
1
100
AcDbSymbolTableRecord
100
AcDbBlockTableRecord
  2
block 38
340
0
102
{BLKREFS
331
119
102
}
 70
     0
280
     1
281
     0
  0
BLOCK_RECORD
  5
11D
330
1
100
AcDbSymbolTableRecord
100
AcDbBlockTableRecord
  2
block 39
340
0
102
{BLKREFS
331
11E
102
}
 70
     0
280
     1
281
     0
  0
BLOCK_RECORD
  5
125
330
1
100
AcDbSymbolTableRecord
100
AcDbBlockTableRecord
  2
block 40
340
0
102
{BLKREFS
331
126
102
}
 70
     0
280
     1
281
     0
  0
BLOCK_RECORD
  5
12A
330
1
100
AcDbSymbolTableRecord
100
AcDbBlockTableRecord
  2
block 41
340
0
102
{BLKREFS
331
12B
102
}
 70
     0
280
     1
281
     0
  0
BLOCK_RECORD
  5
12F
330
1
100
AcDbSymbolTableRecord
100
AcDbBlockTableRecord
  2
block 42
340
0
102
{BLKREFS
331
130
102
}
 70
     0
280
     1
281
     0
  0
BLOCK_RECORD
  5
137
330
1
100
AcDbSymbolTableRecord
100
AcDbBlockTableRecord
  2
block 43
340
0
102
{BLKREFS
331
138
102
}
 70
     0
280
     1
281
     0
  0
BLOCK_RECORD
  5
13F
330
1
100
AcDbSymbolTableRecord
100
AcDbBlockTableRecord
  2
block 44
340
0
102
{BLKREFS
331
140
102
}
 70
     0
280
     1
281
     0
  0
BLOCK_RECORD
  5
147
330
1
100
AcDbSymbolTableRecord
100
AcDbBlockTableRecord
  2
block 45
340
0
102
{BLKREFS
331
148
102
}
 70
     0
280
     1
281
     0
  0
BLOCK_RECORD
  5
14F
330
1
100
AcDbSymbolTableRecord
100
AcDbBlockTableRecord
  2
block 46
340
0
102
{BLKREFS
331
150
102
}
 70
     0
280
     1
281
     0
  0
BLOCK_RECORD
  5
154
330
1
100
AcDbSymbolTableRecord
100
AcDbBlockTableRecord
  2
block 47
340
0
102
{BLKREFS
331
155
102
}
 70
     0
280
     1
281
     0
  0
BLOCK_RECORD
  5
159
330
1
100
AcDbSymbolTableRecord
100
AcDbBlockTableRecord
  2
block 48
340
0
102
{BLKREFS
331
15A
102
}
 70
     0
280
     1
281
     0
  0
BLOCK_RECORD
  5
15E
330
1
100
AcDbSymbolTableRecord
100
AcDbBlockTableRecord
  2
block 49
340
0
102
{BLKREFS
331
15F
102
}
 70
     0
280
     1
281
     0
  0
BLOCK_RECORD
  5
163
330
1
100
AcDbSymbolTableRecord
100
AcDbBlockTableRecord
  2
block 50
340
0
102
{BLKREFS
331
164
102
}
 70
     0
280
     1
281
     0
  0
BLOCK_RECORD
  5
168
330
1
100
AcDbSymbolTableRecord
100
AcDbBlockTableRecord
  2
block 51
340
0
102
{BLKREFS
331
169
102
}
 70
     0
280
     1
281
     0
  0
BLOCK_RECORD
  5
16D
330
1
100
AcDbSymbolTableRecord
100
AcDbBlockTableRecord
  2
block 52
340
0
102
{BLKREFS
331
16E
102
}
 70
     0
280
     1
281
     0
  0
BLOCK_RECORD
  5
172
330
1
100
AcDbSymbolTableRecord
100
AcDbBlockTableRecord
  2
block 53
340
0
102
{BLKREFS
331
173
102
}
 70
     0
280
     1
281
     0
  0
BLOCK_RECORD
  5
177
330
1
100
AcDbSymbolTableRecord
100
AcDbBlockTableRecord
  2
block 54
340
0
102
{BLKREFS
331
178
102
}
 70
     0
280
     1
281
     0
  0
BLOCK_RECORD
  5
17C
330
1
100
AcDbSymbolTableRecord
100
AcDbBlockTableRecord
  2
block 55
340
0
102
{BLKREFS
331
17D
102
}
 70
     0
280
     1
281
     0
  0
BLOCK_RECORD
  5
181
330
1
100
AcDbSymbolTableRecord
100
AcDbBlockTableRecord
  2
block 56
340
0
102
{BLKREFS
331
182
102
}
 70
     0
280
     1
281
     0
  0
BLOCK_RECORD
  5
186
330
1
100
AcDbSymbolTableRecord
100
AcDbBlockTableRecord
  2
block 57
340
0
102
{BLKREFS
331
187
102
}
 70
     0
280
     1
281
     0
  0
BLOCK_RECORD
  5
18B
330
1
100
AcDbSymbolTableRecord
100
AcDbBlockTableRecord
  2
block 58
340
0
102
{BLKREFS
331
18C
102
}
 70
     0
280
     1
281
     0
  0
BLOCK_RECORD
  5
190
330
1
100
AcDbSymbolTableRecord
100
AcDbBlockTableRecord
  2
block 59
340
0
102
{BLKREFS
331
191
102
}
 70
     0
280
     1
281
     0
  0
BLOCK_RECORD
  5
195
330
1
100
AcDbSymbolTableRecord
100
AcDbBlockTableRecord
  2
block 60
340
0
102
{BLKREFS
331
196
102
}
 70
     0
280
     1
281
     0
  0
BLOCK_RECORD
  5
19D
330
1
100
AcDbSymbolTableRecord
100
AcDbBlockTableRecord
  2
block 61
340
0
102
{BLKREFS
331
19E
102
}
 70
     0
280
     1
281
     0
  0
BLOCK_RECORD
  5
1A2
330
1
100
AcDbSymbolTableRecord
100
AcDbBlockTableRecord
  2
block 62
340
0
102
{BLKREFS
331
1A3
102
}
 70
     0
280
     1
281
     0
  0
BLOCK_RECORD
  5
1A7
330
1
100
AcDbSymbolTableRecord
100
AcDbBlockTableRecord
  2
block 63
340
0
102
{BLKREFS
331
1A8
102
}
 70
     0
280
     1
281
     0
  0
BLOCK_RECORD
  5
1AC
330
1
100
AcDbSymbolTableRecord
100
AcDbBlockTableRecord
  2
block 64
340
0
102
{BLKREFS
331
1AD
102
}
 70
     0
280
     1
281
     0
  0
BLOCK_RECORD
  5
1B1
330
1
100
AcDbSymbolTableRecord
100
AcDbBlockTableRecord
  2
block 65
340
0
102
{BLKREFS
331
1B2
102
}
 70
     0
280
     1
281
     0
  0
BLOCK_RECORD
  5
1B6
330
1
100
AcDbSymbolTableRecord
100
AcDbBlockTableRecord
  2
block 66
340
0
102
{BLKREFS
331
1B7
102
}
 70
     0
280
     1
281
     0
  0
BLOCK_RECORD
  5
1BB
330
1
100
AcDbSymbolTableRecord
100
AcDbBlockTableRecord
  2
block 67
340
0
102
{BLKREFS
331
1BC
102
}
 70
     0
280
     1
281
     0
  0
BLOCK_RECORD
  5
1C3
330
1
100
AcDbSymbolTableRecord
100
AcDbBlockTableRecord
  2
block 68
340
0
102
{BLKREFS
331
1C4
102
}
 70
     0
280
     1
281
     0
  0
BLOCK_RECORD
  5
1CB
330
1
100
AcDbSymbolTableRecord
100
AcDbBlockTableRecord
  2
block 69
340
0
102
{BLKREFS
331
1CC
102
}
 70
     0
280
     1
281
     0
  0
BLOCK_RECORD
  5
1D0
330
1
100
AcDbSymbolTableRecord
100
AcDbBlockTableRecord
  2
block 70
340
0
102
{BLKREFS
331
1D1
102
}
 70
     0
280
     1
281
     0
  0
BLOCK_RECORD
  5
1D5
330
1
100
AcDbSymbolTableRecord
100
AcDbBlockTableRecord
  2
block 71
340
0
102
{BLKREFS
331
1D6
102
}
 70
     0
280
     1
281
     0
  0
BLOCK_RECORD
  5
1DA
330
1
100
AcDbSymbolTableRecord
100
AcDbBlockTableRecord
  2
block 72
340
0
102
{BLKREFS
331
1DB
102
}
 70
     0
280
     1
281
     0
  0
BLOCK_RECORD
  5
1DF
330
1
100
AcDbSymbolTableRecord
100
AcDbBlockTableRecord
  2
block 73
340
0
102
{BLKREFS
331
1E0
102
}
 70
     0
280
     1
281
     0
  0
BLOCK_RECORD
  5
1E4
330
1
100
AcDbSymbolTableRecord
100
AcDbBlockTableRecord
  2
block 74
340
0
102
{BLKREFS
331
1E5
102
}
 70
     0
280
     1
281
     0
  0
BLOCK_RECORD
  5
1EC
330
1
100
AcDbSymbolTableRecord
100
AcDbBlockTableRecord
  2
block 75
340
0
102
{BLKREFS
331
1ED
102
}
 70
     0
280
     1
281
     0
  0
BLOCK_RECORD
  5
1F4
330
1
100
AcDbSymbolTableRecord
100
AcDbBlockTableRecord
  2
block 76
340
0
102
{BLKREFS
331
1F5
102
}
 70
     0
280
     1
281
     0
  0
BLOCK_RECORD
  5
1F9
330
1
100
AcDbSymbolTableRecord
100
AcDbBlockTableRecord
  2
block 77
340
0
102
{BLKREFS
331
1FA
102
}
 70
     0
280
     1
281
     0
  0
BLOCK_RECORD
  5
1FE
330
1
100
AcDbSymbolTableRecord
100
AcDbBlockTableRecord
  2
block 78
340
0
102
{BLKREFS
331
1FF
102
}
 70
     0
280
     1
281
     0
  0
BLOCK_RECORD
  5
203
330
1
100
AcDbSymbolTableRecord
100
AcDbBlockTableRecord
  2
block 79
340
0
102
{BLKREFS
331
204
102
}
 70
     0
280
     1
281
     0
  0
BLOCK_RECORD
  5
208
330
1
100
AcDbSymbolTableRecord
100
AcDbBlockTableRecord
  2
block 80
340
0
102
{BLKREFS
331
209
102
}
 70
     0
280
     1
281
     0
  0
BLOCK_RECORD
  5
20D
330
1
100
AcDbSymbolTableRecord
100
AcDbBlockTableRecord
  2
block 81
340
0
102
{BLKREFS
331
20E
102
}
 70
     0
280
     1
281
     0
  0
BLOCK_RECORD
  5
212
330
1
100
AcDbSymbolTableRecord
100
AcDbBlockTableRecord
  2
block 82
340
0
102
{BLKREFS
331
213
102
}
 70
     0
280
     1
281
     0
  0
BLOCK_RECORD
  5
217
330
1
100
AcDbSymbolTableRecord
100
AcDbBlockTableRecord
  2
block 83
340
0
102
{BLKREFS
331
218
102
}
 70
     0
280
     1
281
     0
  0
BLOCK_RECORD
  5
21C
330
1
100
AcDbSymbolTableRecord
100
AcDbBlockTableRecord
  2
block 84
340
0
102
{BLKREFS
331
21D
102
}
 70
     0
280
     1
281
     0
  0
BLOCK_RECORD
  5
224
330
1
100
AcDbSymbolTableRecord
100
AcDbBlockTableRecord
  2
block 85
340
0
102
{BLKREFS
331
225
102
}
 70
     0
280
     1
281
     0
  0
BLOCK_RECORD
  5
22C
330
1
100
AcDbSymbolTableRecord
100
AcDbBlockTableRecord
  2
block 86
340
0
102
{BLKREFS
331
22D
102
}
 70
     0
280
     1
281
     0
  0
BLOCK_RECORD
  5
234
330
1
100
AcDbSymbolTableRecord
100
AcDbBlockTableRecord
  2
block 87
340
0
102
{BLKREFS
331
235
102
}
 70
     0
280
     1
281
     0
  0
BLOCK_RECORD
  5
23C
330
1
100
AcDbSymbolTableRecord
100
AcDbBlockTableRecord
  2
block 88
340
0
102
{BLKREFS
331
23D
102
}
 70
     0
280
     1
281
     0
  0
BLOCK_RECORD
  5
241
330
1
100
AcDbSymbolTableRecord
100
AcDbBlockTableRecord
  2
block 89
340
0
102
{BLKREFS
331
242
102
}
 70
     0
280
     1
281
     0
  0
BLOCK_RECORD
  5
246
330
1
100
AcDbSymbolTableRecord
100
AcDbBlockTableRecord
  2
block 90
340
0
102
{BLKREFS
331
247
102
}
 70
     0
280
     1
281
     0
  0
BLOCK_RECORD
  5
24B
330
1
100
AcDbSymbolTableRecord
100
AcDbBlockTableRecord
  2
block 91
340
0
102
{BLKREFS
331
24C
102
}
 70
     0
280
     1
281
     0
  0
BLOCK_RECORD
  5
250
330
1
100
AcDbSymbolTableRecord
100
AcDbBlockTableRecord
  2
block 92
340
0
102
{BLKREFS
331
251
102
}
 70
     0
280
     1
281
     0
  0
BLOCK_RECORD
  5
258
330
1
100
AcDbSymbolTableRecord
100
AcDbBlockTableRecord
  2
block 93
340
0
102
{BLKREFS
331
259
102
}
 70
     0
280
     1
281
     0
  0
BLOCK_RECORD
  5
260
330
1
100
AcDbSymbolTableRecord
100
AcDbBlockTableRecord
  2
block 94
340
0
102
{BLKREFS
331
261
102
}
 70
     0
280
     1
281
     0
  0
BLOCK_RECORD
  5
265
330
1
100
AcDbSymbolTableRecord
100
AcDbBlockTableRecord
  2
block 95
340
0
102
{BLKREFS
331
266
102
}
 70
     0
280
     1
281
     0
  0
BLOCK_RECORD
  5
26A
330
1
100
AcDbSymbolTableRecord
100
AcDbBlockTableRecord
  2
block 96
340
0
102
{BLKREFS
331
26B
102
}
 70
     0
280
     1
281
     0
  0
BLOCK_RECORD
  5
26F
330
1
100
AcDbSymbolTableRecord
100
AcDbBlockTableRecord
  2
block 97
340
0
102
{BLKREFS
331
270
102
}
 70
     0
280
     1
281
     0
  0
BLOCK_RECORD
  5
274
330
1
100
AcDbSymbolTableRecord
100
AcDbBlockTableRecord
  2
block 98
340
0
102
{BLKREFS
331
275
102
}
 70
     0
280
     1
281
     0
  0
BLOCK_RECORD
  5
279
330
1
100
AcDbSymbolTableRecord
100
AcDbBlockTableRecord
  2
block 99
340
0
102
{BLKREFS
331
27A
102
}
 70
     0
280
     1
281
     0
  0
BLOCK_RECORD
  5
27E
330
1
100
AcDbSymbolTableRecord
100
AcDbBlockTableRecord
  2
block 100
340
0
102
{BLKREFS
331
27F
102
}
 70
     0
280
     1
281
     0
  0
BLOCK_RECORD
  5
283
330
1
100
AcDbSymbolTableRecord
100
AcDbBlockTableRecord
  2
block 101
340
0
102
{BLKREFS
331
284
102
}
 70
     0
280
     1
281
     0
  0
BLOCK_RECORD
  5
288
330
1
100
AcDbSymbolTableRecord
100
AcDbBlockTableRecord
  2
block 102
340
0
102
{BLKREFS
331
289
102
}
 70
     0
280
     1
281
     0
  0
BLOCK_RECORD
  5
28D
330
1
100
AcDbSymbolTableRecord
100
AcDbBlockTableRecord
  2
block 103
340
0
102
{BLKREFS
331
28E
102
}
 70
     0
280
     1
281
     0
  0
BLOCK_RECORD
  5
292
330
1
100
AcDbSymbolTableRecord
100
AcDbBlockTableRecord
  2
block 104
340
0
102
{BLKREFS
331
293
102
}
 70
     0
280
     1
281
     0
  0
BLOCK_RECORD
  5
297
330
1
100
AcDbSymbolTableRecord
100
AcDbBlockTableRecord
  2
block 105
340
0
102
{BLKREFS
331
298
102
}
 70
     0
280
     1
281
     0
  0
BLOCK_RECORD
  5
29C
330
1
100
AcDbSymbolTableRecord
100
AcDbBlockTableRecord
  2
block 106
340
0
102
{BLKREFS
331
29D
102
}
 70
     0
280
     1
281
     0
  0
BLOCK_RECORD
  5
2A1
330
1
100
AcDbSymbolTableRecord
100
AcDbBlockTableRecord
  2
block 107
340
0
102
{BLKREFS
331
2A2
102
}
 70
     0
280
     1
281
     0
  0
BLOCK_RECORD
  5
2A9
330
1
100
AcDbSymbolTableRecord
100
AcDbBlockTableRecord
  2
block 108
340
0
102
{BLKREFS
331
2AA
102
}
 70
     0
280
     1
281
     0
  0
ENDTAB
  0
ENDSEC
  0
SECTION
  2
BLOCKS
  0
BLOCK
  5
20
330
1F
100
AcDbEntity
  8
0
100
AcDbBlockBegin
  2
*Model_Space
 70
     0
 10
0.0
 20
0.0
 30
0.0
  3
*Model_Space
  1

  0
ENDBLK
  5
21
330
1F
100
AcDbEntity
  8
0
100
AcDbBlockEnd
  0
BLOCK
  5
1C
330
1B
100
AcDbEntity
 67
     1
  8
0
100
AcDbBlockBegin
  2
*Paper_Space
 70
     0
 10
0.0
 20
0.0
 30
0.0
  3
*Paper_Space
  1

  0
ENDBLK
  5
1D
330
1B
100
AcDbEntity
 67
     1
  8
0
100
AcDbBlockEnd
  0
BLOCK
  5
24
330
23
100
AcDbEntity
  8
0
100
AcDbBlockBegin
  2
*Paper_Space0
 70
     0
 10
0.0
 20
0.0
 30
0.0
  3
*Paper_Space0
  1

  0
ENDBLK
  5
25
330
23
100
AcDbEntity
  8
0
100
AcDbBlockEnd
  0
BLOCK
  5
42
330
40
100
AcDbEntity
  8
0
100
AcDbBlockBegin
  2
block 2
 70
     0
 10
0.0
 20
0.0
 30
0.0
  3
block 2
  1

  0
POLYLINE
  5
44
330
40
100
AcDbEntity
  8
0
 62
     1
370
    25
100
AcDb2dPolyline
 66
     1
 10
0.0
 20
0.0
 30
0.0
  0
VERTEX
  5
45
330
44
100
AcDbEntity
  8
0
 62
     1
370
    25
100
AcDbVertex
100
AcDb2dVertex
 10
256.923683862006
 20
301.1779699967475
 30
0.0
  0
VERTEX
  5
46
330
44
100
AcDbEntity
  8
0
 62
     1
370
    25
100
AcDbVertex
100
AcDb2dVertex
 10
-243.5725151128808
 20
292.6212012383411
 30
0.0
  0
SEQEND
  5
47
330
44
100
AcDbEntity
  8
0
 62
     1
370
    25
  0
ENDBLK
  5
43
330
40
100
AcDbEntity
  8
0
100
AcDbBlockEnd
  0
BLOCK
  5
4A
330
48
100
AcDbEntity
  8
0
100
AcDbBlockBegin
  2
block 3
 70
     0
 10
0.0
 20
0.0
 30
0.0
  3
block 3
  1

  0
POLYLINE
  5
4C
330
48
100
AcDbEntity
  8
0
 62
     1
370
    25
100
AcDb2dPolyline
 66
     1
 10
0.0
 20
0.0
 30
0.0
  0
VERTEX
  5
4D
330
4C
100
AcDbEntity
  8
0
 62
     1
370
    25
100
AcDbVertex
100
AcDb2dVertex
 10
256.4198147447511
 20
339.2731722968779
 30
0.0
  0
VERTEX
  5
4E
330
4C
100
AcDbEntity
  8
0
 62
     1
370
    25
100
AcDbVertex
100
AcDb2dVertex
 10
-255.2036005336327
 20
348.0275715616212
 30
0.0
  0
SEQEND
  5
4F
330
4C
100
AcDbEntity
  8
0
 62
     1
370
    25
  0
ENDBLK
  5
4B
330
48
100
AcDbEntity
  8
0
100
AcDbBlockEnd
  0
BLOCK
  5
52
330
50
100
AcDbEntity
  8
0
100
AcDbBlockBegin
  2
block 4
 70
     0
 10
0.0
 20
0.0
 30
0.0
  3
block 4
  1

  0
POLYLINE
  5
54
330
50
100
AcDbEntity
  8
0
 62
     3
370
    25
100
AcDb2dPolyline
 66
     1
 10
0.0
 20
0.0
 30
0.0
  0
VERTEX
  5
55
330
54
100
AcDbEntity
  8
0
 62
     3
370
    25
100
AcDbVertex
100
AcDb2dVertex
 10
-220.6860623054934
 20
347.4369412224667
 30
0.0
  0
VERTEX
  5
56
330
54
100
AcDbEntity
  8
0
 62
     3
370
    25
100
AcDbVertex
100
AcDb2dVertex
 10
-206.1695723875306
 20
293.260663301071
 30
0.0
  0
SEQEND
  5
57
330
54
100
AcDbEntity
  8
0
 62
     3
370
    25
  0
ENDBLK
  5
53
330
50
100
AcDbEntity
  8
0
100
AcDbBlockEnd
  0
BLOCK
  5
5A
330
58
100
AcDbEntity
  8
0
100
AcDbBlockBegin
  2
block 5
 70
     0
 10
0.0
 20
0.0
 30
0.0
  3
block 5
  1

  0
SPLINE
  5
5C
330
58
100
AcDbEntity
  8
0
 62
     1
370
    25
100
AcDbSpline
210
0.0
220
0.0
230
1.0
 70
     8
 71
     3
 72
     8
 73
     4
 74
     0
 42
0.0000000001
 43
0.0000000001
 12
1.0
 22
0.0
 32
0.0
 13
1.0
 23
0.0
 33
0.0
 40
0.0
 40
0.0
 40
0.0
 40
0.0
 40
1.0
 40
1.0
 40
1.0
 40
1.0
 10
308.3006163453791
 20
350.3196089014375
 30
0.0
 10
335.3981720026361
 20
347.5634929364966
 30
0.0
 10
362.7495213647775
 20
348.6594599317211
 30
0.0
 10
389.5396800759991
 20
353.574853510865
 30
0.0
  0
ENDBLK
  5
5B
330
58
100
AcDbEntity
  8
0
100
AcDbBlockEnd
  0
BLOCK
  5
5F
330
5D
100
AcDbEntity
  8
0
100
AcDbBlockBegin
  2
block 6
 70
     0
 10
0.0
 20
0.0
 30
0.0
  3
block 6
  1

  0
SPLINE
  5
61
330
5D
100
AcDbEntity
  8
0
 62
     1
370
    25
100
AcDbSpline
210
0.0
220
0.0
230
1.0
 70
     8
 71
     3
 72
     8
 73
     4
 74
     0
 42
0.0000000001
 43
0.0000000001
 12
1.0
 22
0.0
 32
0.0
 13
1.0
 23
0.0
 33
0.0
 40
0.0
 40
0.0
 40
0.0
 40
0.0
 40
1.0
 40
1.0
 40
1.0
 40
1.0
 10
407.865542519769
 20
287.1643815918139
 30
0.0
 10
375.9584925402298
 20
292.6581937708293
 30
0.0
 10
343.3897199137738
 20
293.1410480383447
 30
0.0
 10
311.3338300175155
 20
288.5955300685117
 30
0.0
  0
ENDBLK
  5
60
330
5D
100
AcDbEntity
  8
0
100
AcDbBlockEnd
  0
BLOCK
  5
64
330
62
100
AcDbEntity
  8
0
100
AcDbBlockBegin
  2
block 7
 70
     0
 10
0.0
 20
0.0
 30
0.0
  3
block 7
  1

  0
SPLINE
  5
66
330
62
100
AcDbEntity
  8
0
 62
     1
370
    25
100
AcDbSpline
210
0.0
220
0.0
230
1.0
 70
     8
 71
     3
 72
     8
 73
     4
 74
     0
 42
0.0000000001
 43
0.0000000001
 12
1.0
 22
0.0
 32
0.0
 13
1.0
 23
0.0
 33
0.0
 40
0.0
 40
0.0
 40
0.0
 40
0.0
 40
1.0
 40
1.0
 40
1.0
 40
1.0
 10
256.419814744755
 20
339.2731722968776
 30
0.0
 10
267.5000274913983
 20
339.4941277829059
 30
0.0
 10
278.1714587622277
 20
343.4977921455705
 30
0.0
 10
286.6626534170255
 20
350.6195580201286
 30
0.0
  0
ENDBLK
  5
65
330
62
100
AcDbEntity
  8
0
100
AcDbBlockEnd
  0
BLOCK
  5
69
330
67
100
AcDbEntity
  8
0
100
AcDbBlockBegin
  2
block 8
 70
     0
 10
0.0
 20
0.0
 30
0.0
  3
block 8
  1

  0
SPLINE
  5
6B
330
67
100
AcDbEntity
  8
0
 62
     1
370
    25
100
AcDbSpline
210
0.0
220
0.0
230
1.0
 70
     8
 71
     3
 72
     8
 73
     4
 74
     0
 42
0.0000000001
 43
0.0000000001
 12
1.0
 22
0.0
 32
0.0
 13
1.0
 23
0.0
 33
0.0
 40
0.0
 40
0.0
 40
0.0
 40
0.0
 40
1.0
 40
1.0
 40
1.0
 40
1.0
 10
308.3006163453785
 20
350.3196089014378
 30
0.0
 10
302.2091572236179
 20
351.0914007787441
 30
0.0
 10
296.0845332534175
 20
351.5739716705426
 30
0.0
 10
289.9473695331627
 20
351.7656964856989
 30
0.0
  0
ENDBLK
  5
6A
330
67
100
AcDbEntity
  8
0
100
AcDbBlockEnd
  0
BLOCK
  5
6E
330
6C
100
AcDbEntity
  8
0
100
AcDbBlockBegin
  2
block 9
 70
     0
 10
0.0
 20
0.0
 30
0.0
  3
block 9
  1

  0
SPLINE
  5
70
330
6C
100
AcDbEntity
  8
0
 62
     1
370
    25
100
AcDbSpline
210
0.0
220
0.0
230
1.0
 70
     8
 71
     3
 72
     8
 73
     4
 74
     0
 42
0.0000000001
 43
0.0000000001
 12
1.0
 22
0.0
 32
0.0
 13
1.0
 23
0.0
 33
0.0
 40
0.0
 40
0.0
 40
0.0
 40
0.0
 40
1.0
 40
1.0
 40
1.0
 40
1.0
 10
289.9473695331627
 20
351.7656964856986
 30
0.0
 10
288.7483785376059
 20
351.8031529293388
 30
0.0
 10
287.5780702090366
 20
351.3947963638013
 30
0.0
 10
286.6626534170262
 20
350.6195580201283
 30
0.0
  0
ENDBLK
  5
6F
330
6C
100
AcDbEntity
  8
0
100
AcDbBlockEnd
  0
BLOCK
  5
73
330
71
100
AcDbEntity
  8
0
100
AcDbBlockBegin
  2
block 10
 70
     0
 10
0.0
 20
0.0
 30
0.0
  3
block 10
  1

  0
SPLINE
  5
75
330
71
100
AcDbEntity
  8
0
 62
     1
370
    25
100
AcDbSpline
210
0.0
220
0.0
230
1.0
 70
     8
 71
     3
 72
     8
 73
     4
 74
     0
 42
0.0000000001
 43
0.0000000001
 12
1.0
 22
0.0
 32
0.0
 13
1.0
 23
0.0
 33
0.0
 40
0.0
 40
0.0
 40
0.0
 40
0.0
 40
1.0
 40
1.0
 40
1.0
 40
1.0
 10
291.4334793755935
 20
288.3431705429268
 30
0.0
 10
281.7147030584135
 20
296.4044684029093
 30
0.0
 10
269.5481584755672
 20
300.9294201577046
 30
0.0
 10
256.9236838620138
 20
301.1779699967475
 30
0.0
  0
ENDBLK
  5
74
330
71
100
AcDbEntity
  8
0
100
AcDbBlockEnd
  0
BLOCK
  5
78
330
76
100
AcDbEntity
  8
0
100
AcDbBlockBegin
  2
block 11
 70
     0
 10
0.0
 20
0.0
 30
0.0
  3
block 11
  1

  0
POLYLINE
  5
7A
330
76
100
AcDbEntity
  8
0
 62
     3
370
    25
100
AcDb2dPolyline
 66
     1
 10
0.0
 20
0.0
 30
0.0
  0
VERTEX
  5
7B
330
7A
100
AcDbEntity
  8
0
 62
     3
370
    25
100
AcDbVertex
100
AcDb2dVertex
 10
252.8223994720051
 20
339.3347277469962
 30
0.0
  0
VERTEX
  5
7C
330
7A
100
AcDbEntity
  8
0
 62
     3
370
    25
100
AcDbVertex
100
AcDb2dVertex
 10
252.8223994720051
 20
301.1078520973321
 30
0.0
  0
SEQEND
  5
7D
330
7A
100
AcDbEntity
  8
0
 62
     3
370
    25
  0
ENDBLK
  5
79
330
76
100
AcDbEntity
  8
0
100
AcDbBlockEnd
  0
BLOCK
  5
80
330
7E
100
AcDbEntity
  8
0
100
AcDbBlockBegin
  2
block 12
 70
     0
 10
0.0
 20
0.0
 30
0.0
  3
block 12
  1

  0
SPLINE
  5
82
330
7E
100
AcDbEntity
  8
0
 62
     1
370
    25
100
AcDbSpline
210
0.0
220
0.0
230
1.0
 70
    11
 71
     3
 72
    20
 73
    16
 74
     0
 42
0.0000000001
 43
0.0000000001
 12
1.0
 22
0.0
 32
0.0
 13
1.0
 23
0.0
 33
0.0
 40
0.0
 40
0.0
 40
0.0
 40
0.0
 40
1.0
 40
1.0
 40
1.0
 40
2.0
 40
2.0
 40
2.0
 40
3.0
 40
3.0
 40
3.0
 40
4.0
 40
4.0
 40
4.0
 40
5.0
 40
5.0
 40
5.0
 40
5.0
 10
306.7913002578977
 20
338.3279414913466
 30
0.0
 10
306.7913002578977
 20
340.4700977416701
 30
0.0
 10
308.5278610117641
 20
342.2066584955364
 30
0.0
 10
310.6700172620875
 20
342.2066584955364
 30
0.0
 10
312.812173512411
 20
342.2066584955364
 30
0.0
 10
314.5487342662774
 20
340.4700977416701
 30
0.0
 10
314.5487342662774
 20
338.3279414913466
 30
0.0
 10
314.5487342662774
 20
336.1857852410228
 30
0.0
 10
312.812173512411
 20
334.4492244871565
 30
0.0
 10
310.6700172620875
 20
334.4492244871565
 30
0.0
 10
308.5278610117641
 20
334.4492244871565
 30
0.0
 10
306.7913002578977
 20
336.1857852410228
 30
0.0
 10
306.7913002578977
 20
338.3279414913466
 30
0.0
 10
306.7913002578977
 20
338.3279414913466
 30
0.0
 10
306.7913002578977
 20
338.3279414913466
 30
0.0
 10
306.7913002578977
 20
338.3279414913466
 30
0.0
  0
ENDBLK
  5
81
330
7E
100
AcDbEntity
  8
0
100
AcDbBlockEnd
  0
BLOCK
  5
85
330
83
100
AcDbEntity
  8
0
100
AcDbBlockBegin
  2
block 13
 70
     0
 10
0.0
 20
0.0
 30
0.0
  3
block 13
  1

  0
SPLINE
  5
87
330
83
100
AcDbEntity
  8
0
 62
     1
370
    25
100
AcDbSpline
210
0.0
220
0.0
230
1.0
 70
     8
 71
     3
 72
     8
 73
     4
 74
     0
 42
0.0000000001
 43
0.0000000001
 12
1.0
 22
0.0
 32
0.0
 13
1.0
 23
0.0
 33
0.0
 40
0.0
 40
0.0
 40
0.0
 40
0.0
 40
1.0
 40
1.0
 40
1.0
 40
1.0
 10
294.6805176958584
 20
287.2154231311215
 30
0.0
 10
300.4967916182046
 20
287.3787578537035
 30
0.0
 10
306.2990220514387
 20
287.8735810519977
 30
0.0
 10
312.0589617133585
 20
288.6974837540261
 30
0.0
  0
ENDBLK
  5
86
330
83
100
AcDbEntity
  8
0
100
AcDbBlockEnd
  0
BLOCK
  5
8A
330
88
100
AcDbEntity
  8
0
100
AcDbBlockBegin
  2
block 14
 70
     0
 10
0.0
 20
0.0
 30
0.0
  3
block 14
  1

  0
SPLINE
  5
8C
330
88
100
AcDbEntity
  8
0
 62
     1
370
    25
100
AcDbSpline
210
0.0
220
0.0
230
1.0
 70
     8
 71
     3
 72
     8
 73
     4
 74
     0
 42
0.0000000001
 43
0.0000000001
 12
1.0
 22
0.0
 32
0.0
 13
1.0
 23
0.0
 33
0.0
 40
0.0
 40
0.0
 40
0.0
 40
0.0
 40
1.0
 40
1.0
 40
1.0
 40
1.0
 10
291.4334793755935
 20
288.3431705429268
 30
0.0
 10
292.3417788637732
 20
287.583325986616
 30
0.0
 10
293.49676660537
 20
287.1821806018747
 30
0.0
 10
294.6805176958578
 20
287.2154231311215
 30
0.0
  0
ENDBLK
  5
8B
330
88
100
AcDbEntity
  8
0
100
AcDbBlockEnd
  0
BLOCK
  5
8F
330
8D
100
AcDbEntity
  8
0
100
AcDbBlockBegin
  2
block 15
 70
     0
 10
0.0
 20
0.0
 30
0.0
  3
block 15
  1

  0
SPLINE
  5
91
330
8D
100
AcDbEntity
  8
0
 62
     1
370
    25
100
AcDbSpline
210
0.0
220
0.0
230
1.0
 70
    11
 71
     3
 72
    20
 73
    16
 74
     0
 42
0.0000000001
 43
0.0000000001
 12
1.0
 22
0.0
 32
0.0
 13
1.0
 23
0.0
 33
0.0
 40
0.0
 40
0.0
 40
0.0
 40
0.0
 40
1.0
 40
1.0
 40
1.0
 40
2.0
 40
2.0
 40
2.0
 40
3.0
 40
3.0
 40
3.0
 40
4.0
 40
4.0
 40
4.0
 40
5.0
 40
5.0
 40
5.0
 40
5.0
 10
315.661196328977
 20
302.2131965961979
 30
0.0
 10
315.661196328977
 20
304.3553528465217
 30
0.0
 10
317.3977570828434
 20
306.0919136003881
 30
0.0
 10
319.5399133331669
 20
306.0919136003881
 30
0.0
 10
321.6820695834909
 20
306.0919136003881
 30
0.0
 10
323.4186303373573
 20
304.3553528465217
 30
0.0
 10
323.4186303373573
 20
302.2131965961979
 30
0.0
 10
323.4186303373573
 20
300.0710403458745
 30
0.0
 10
321.6820695834909
 20
298.3344795920081
 30
0.0
 10
319.5399133331669
 20
298.3344795920081
 30
0.0
 10
317.3977570828434
 20
298.3344795920081
 30
0.0
 10
315.661196328977
 20
300.0710403458745
 30
0.0
 10
315.661196328977
 20
302.2131965961979
 30
0.0
 10
315.661196328977
 20
302.2131965961979
 30
0.0
 10
315.661196328977
 20
302.2131965961979
 30
0.0
 10
315.661196328977
 20
302.2131965961979
 30
0.0
  0
ENDBLK
  5
90
330
8D
100
AcDbEntity
  8
0
100
AcDbBlockEnd
  0
BLOCK
  5
94
330
92
100
AcDbEntity
  8
0
100
AcDbBlockBegin
  2
block 16
 70
     0
 10
0.0
 20
0.0
 30
0.0
  3
block 16
  1

  0
POLYLINE
  5
96
330
92
100
AcDbEntity
  8
0
 62
     1
370
    25
100
AcDb2dPolyline
 66
     1
 10
0.0
 20
0.0
 30
0.0
  0
VERTEX
  5
97
330
96
100
AcDbEntity
  8
0
 62
     1
370
    25
100
AcDbVertex
100
AcDb2dVertex
 10
416.7967380550807
 20
352.2336440933484
 30
0.0
  0
VERTEX
  5
98
330
96
100
AcDbEntity
  8
0
 62
     1
370
    25
100
AcDbVertex
100
AcDb2dVertex
 10
418.8936638302628
 20
343.7014667094895
 30
0.0
  0
SEQEND
  5
99
330
96
100
AcDbEntity
  8
0
 62
     1
370
    25
  0
ENDBLK
  5
95
330
92
100
AcDbEntity
  8
0
100
AcDbBlockEnd
  0
BLOCK
  5
9C
330
9A
100
AcDbEntity
  8
0
100
AcDbBlockBegin
  2
block 17
 70
     0
 10
0.0
 20
0.0
 30
0.0
  3
block 17
  1

  0
SPLINE
  5
9E
330
9A
100
AcDbEntity
  8
0
 62
     1
370
    25
100
AcDbSpline
210
0.0
220
0.0
230
1.0
 70
     8
 71
     3
 72
     8
 73
     4
 74
     0
 42
0.0000000001
 43
0.0000000001
 12
1.0
 22
0.0
 32
0.0
 13
1.0
 23
0.0
 33
0.0
 40
0.0
 40
0.0
 40
0.0
 40
0.0
 40
1.0
 40
1.0
 40
1.0
 40
1.0
 10
416.7967380550807
 20
352.2336440933487
 30
0.0
 10
416.1227319084036
 20
354.9761064491115
 30
0.0
 10
413.5766309443928
 20
356.8385112021401
 30
0.0
 10
410.7588439114122
 20
356.6502021601351
 30
0.0
  0
ENDBLK
  5
9D
330
9A
100
AcDbEntity
  8
0
100
AcDbBlockEnd
  0
BLOCK
  5
A1
330
9F
100
AcDbEntity
  8
0
100
AcDbBlockBegin
  2
block 18
 70
     0
 10
0.0
 20
0.0
 30
0.0
  3
block 18
  1

  0
SPLINE
  5
A3
330
9F
100
AcDbEntity
  8
0
 62
     1
370
    25
100
AcDbSpline
210
0.0
220
0.0
230
1.0
 70
     8
 71
     3
 72
     8
 73
     4
 74
     0
 42
0.0000000001
 43
0.0000000001
 12
1.0
 22
0.0
 32
0.0
 13
1.0
 23
0.0
 33
0.0
 40
0.0
 40
0.0
 40
0.0
 40
0.0
 40
1.0
 40
1.0
 40
1.0
 40
1.0
 10
410.7588439114122
 20
356.6502021601357
 30
0.0
 10
403.6171593412988
 20
356.1729326702983
 30
0.0
 10
396.5230061276266
 20
355.1447585785854
 30
0.0
 10
389.5396800760042
 20
353.5748535108666
 30
0.0
  0
ENDBLK
  5
A2
330
9F
100
AcDbEntity
  8
0
100
AcDbBlockEnd
  0
BLOCK
  5
A6
330
A4
100
AcDbEntity
  8
0
100
AcDbBlockBegin
  2
block 19
 70
     0
 10
0.0
 20
0.0
 30
0.0
  3
block 19
  1

  0
SPLINE
  5
A8
330
A4
100
AcDbEntity
  8
0
 62
     1
370
    25
100
AcDbSpline
210
0.0
220
0.0
230
1.0
 70
    11
 71
     3
 72
    20
 73
    16
 74
     0
 42
0.0000000001
 43
0.0000000001
 12
1.0
 22
0.0
 32
0.0
 13
1.0
 23
0.0
 33
0.0
 40
0.0
 40
0.0
 40
0.0
 40
0.0
 40
1.0
 40
1.0
 40
1.0
 40
2.0
 40
2.0
 40
2.0
 40
3.0
 40
3.0
 40
3.0
 40
4.0
 40
4.0
 40
4.0
 40
5.0
 40
5.0
 40
5.0
 40
5.0
 10
339.2533858686602
 20
337.5182965682177
 30
0.0
 10
339.2533858686602
 20
339.6604528185412
 30
0.0
 10
340.9899466225266
 20
341.3970135724079
 30
0.0
 10
343.1321028728507
 20
341.3970135724079
 30
0.0
 10
345.2742591231741
 20
341.3970135724079
 30
0.0
 10
347.0108198770405
 20
339.6604528185412
 30
0.0
 10
347.0108198770405
 20
337.5182965682177
 30
0.0
 10
347.0108198770405
 20
335.3761403178943
 30
0.0
 10
345.2742591231741
 20
333.6395795640276
 30
0.0
 10
343.1321028728507
 20
333.6395795640276
 30
0.0
 10
340.9899466225266
 20
333.6395795640276
 30
0.0
 10
339.2533858686602
 20
335.3761403178943
 30
0.0
 10
339.2533858686602
 20
337.5182965682177
 30
0.0
 10
339.2533858686602
 20
337.5182965682177
 30
0.0
 10
339.2533858686602
 20
337.5182965682177
 30
0.0
 10
339.2533858686602
 20
337.5182965682177
 30
0.0
  0
ENDBLK
  5
A7
330
A4
100
AcDbEntity
  8
0
100
AcDbBlockEnd
  0
BLOCK
  5
AB
330
A9
100
AcDbEntity
  8
0
100
AcDbBlockBegin
  2
block 20
 70
     0
 10
0.0
 20
0.0
 30
0.0
  3
block 20
  1

  0
SPLINE
  5
AD
330
A9
100
AcDbEntity
  8
0
 62
     1
370
    25
100
AcDbSpline
210
0.0
220
0.0
230
1.0
 70
    11
 71
     3
 72
    20
 73
    16
 74
     0
 42
0.0000000001
 43
0.0000000001
 12
1.0
 22
0.0
 32
0.0
 13
1.0
 23
0.0
 33
0.0
 40
0.0
 40
0.0
 40
0.0
 40
0.0
 40
1.0
 40
1.0
 40
1.0
 40
2.0
 40
2.0
 40
2.0
 40
3.0
 40
3.0
 40
3.0
 40
4.0
 40
4.0
 40
4.0
 40
5.0
 40
5.0
 40
5.0
 40
5.0
 10
371.7028965586672
 20
338.7314672409282
 30
0.0
 10
371.7028965586672
 20
340.8736234912517
 30
0.0
 10
373.4394573125336
 20
342.6101842451184
 30
0.0
 10
375.5816135628577
 20
342.6101842451184
 30
0.0
 10
377.7237698131811
 20
342.6101842451184
 30
0.0
 10
379.4603305670475
 20
340.8736234912517
 30
0.0
 10
379.4603305670475
 20
338.7314672409282
 30
0.0
 10
379.4603305670475
 20
336.5893109906048
 30
0.0
 10
377.7237698131811
 20
334.8527502367381
 30
0.0
 10
375.5816135628577
 20
334.8527502367381
 30
0.0
 10
373.4394573125336
 20
334.8527502367381
 30
0.0
 10
371.7028965586672
 20
336.5893109906048
 30
0.0
 10
371.7028965586672
 20
338.7314672409282
 30
0.0
 10
371.7028965586672
 20
338.7314672409282
 30
0.0
 10
371.7028965586672
 20
338.7314672409282
 30
0.0
 10
371.7028965586672
 20
338.7314672409282
 30
0.0
  0
ENDBLK
  5
AC
330
A9
100
AcDbEntity
  8
0
100
AcDbBlockEnd
  0
BLOCK
  5
B0
330
AE
100
AcDbEntity
  8
0
100
AcDbBlockBegin
  2
block 21
 70
     0
 10
0.0
 20
0.0
 30
0.0
  3
block 21
  1

  0
SPLINE
  5
B2
330
AE
100
AcDbEntity
  8
0
 62
     1
370
    25
100
AcDbSpline
210
0.0
220
0.0
230
1.0
 70
    11
 71
     3
 72
    20
 73
    16
 74
     0
 42
0.0000000001
 43
0.0000000001
 12
1.0
 22
0.0
 32
0.0
 13
1.0
 23
0.0
 33
0.0
 40
0.0
 40
0.0
 40
0.0
 40
0.0
 40
1.0
 40
1.0
 40
1.0
 40
2.0
 40
2.0
 40
2.0
 40
3.0
 40
3.0
 40
3.0
 40
4.0
 40
4.0
 40
4.0
 40
5.0
 40
5.0
 40
5.0
 40
5.0
 10
348.4159697371325
 20
303.4240585759094
 30
0.0
 10
348.4159697371325
 20
305.5662148262329
 30
0.0
 10
350.1525304909989
 20
307.3027755800993
 30
0.0
 10
352.2946867413229
 20
307.3027755800993
 30
0.0
 10
354.4368429916464
 20
307.3027755800993
 30
0.0
 10
356.1734037455128
 20
305.5662148262329
 30
0.0
 10
356.1734037455128
 20
303.4240585759094
 30
0.0
 10
356.1734037455128
 20
301.2819023255856
 30
0.0
 10
354.4368429916464
 20
299.5453415717192
 30
0.0
 10
352.2946867413229
 20
299.5453415717192
 30
0.0
 10
350.1525304909989
 20
299.5453415717192
 30
0.0
 10
348.4159697371325
 20
301.2819023255856
 30
0.0
 10
348.4159697371325
 20
303.4240585759094
 30
0.0
 10
348.4159697371325
 20
303.4240585759094
 30
0.0
 10
348.4159697371325
 20
303.4240585759094
 30
0.0
 10
348.4159697371325
 20
303.4240585759094
 30
0.0
  0
ENDBLK
  5
B1
330
AE
100
AcDbEntity
  8
0
100
AcDbBlockEnd
  0
BLOCK
  5
B5
330
B3
100
AcDbEntity
  8
0
100
AcDbBlockBegin
  2
block 22
 70
     0
 10
0.0
 20
0.0
 30
0.0
  3
block 22
  1

  0
SPLINE
  5
B7
330
B3
100
AcDbEntity
  8
0
 62
     1
370
    25
100
AcDbSpline
210
0.0
220
0.0
230
1.0
 70
    11
 71
     3
 72
    20
 73
    16
 74
     0
 42
0.0000000001
 43
0.0000000001
 12
1.0
 22
0.0
 32
0.0
 13
1.0
 23
0.0
 33
0.0
 40
0.0
 40
0.0
 40
0.0
 40
0.0
 40
1.0
 40
1.0
 40
1.0
 40
2.0
 40
2.0
 40
2.0
 40
3.0
 40
3.0
 40
3.0
 40
4.0
 40
4.0
 40
4.0
 40
5.0
 40
5.0
 40
5.0
 40
5.0
 10
381.1775793070166
 20
302.4149470141824
 30
0.0
 10
381.1775793070166
 20
304.5571032645059
 30
0.0
 10
382.914140060883
 20
306.2936640183723
 30
0.0
 10
385.0562963112064
 20
306.2936640183723
 30
0.0
 10
387.1984525615305
 20
306.2936640183723
 30
0.0
 10
388.9350133153969
 20
304.5571032645059
 30
0.0
 10
388.9350133153969
 20
302.4149470141824
 30
0.0
 10
388.9350133153969
 20
300.2727907638587
 30
0.0
 10
387.1984525615305
 20
298.5362300099923
 30
0.0
 10
385.0562963112064
 20
298.5362300099923
 30
0.0
 10
382.914140060883
 20
298.5362300099923
 30
0.0
 10
381.1775793070166
 20
300.2727907638587
 30
0.0
 10
381.1775793070166
 20
302.4149470141824
 30
0.0
 10
381.1775793070166
 20
302.4149470141824
 30
0.0
 10
381.1775793070166
 20
302.4149470141824
 30
0.0
 10
381.1775793070166
 20
302.4149470141824
 30
0.0
  0
ENDBLK
  5
B6
330
B3
100
AcDbEntity
  8
0
100
AcDbBlockEnd
  0
BLOCK
  5
BA
330
B8
100
AcDbEntity
  8
0
100
AcDbBlockBegin
  2
block 23
 70
     0
 10
0.0
 20
0.0
 30
0.0
  3
block 23
  1

  0
SPLINE
  5
BC
330
B8
100
AcDbEntity
  8
0
 62
     1
370
    25
100
AcDbSpline
210
0.0
220
0.0
230
1.0
 70
     8
 71
     3
 72
    11
 73
     7
 74
     0
 42
0.0000000001
 43
0.0000000001
 12
1.0
 22
0.0
 32
0.0
 13
1.0
 23
0.0
 33
0.0
 40
0.0
 40
0.0
 40
0.0
 40
0.0
 40
1.0
 40
1.0
 40
1.0
 40
2.0
 40
2.0
 40
2.0
 40
2.0
 10
424.9972107748264
 20
314.5603209973509
 30
0.0
 10
425.6183428397574
 20
315.0697320837064
 30
0.0
 10
425.7089105874406
 20
315.9862183889329
 30
0.0
 10
425.1994995010855
 20
316.6073504538642
 30
0.0
 10
425.0713120536151
 20
316.7636512020773
 30
0.0
 10
424.9119525807845
 20
316.8915165866944
 30
0.0
 10
424.7315881664493
 20
316.9827888367062
 30
0.0
  0
ENDBLK
  5
BB
330
B8
100
AcDbEntity
  8
0
100
AcDbBlockEnd
  0
BLOCK
  5
BF
330
BD
100
AcDbEntity
  8
0
100
AcDbBlockBegin
  2
block 24
 70
     0
 10
0.0
 20
0.0
 30
0.0
  3
block 24
  1

  0
POLYLINE
  5
C1
330
BD
100
AcDbEntity
  8
0
 62
     1
370
    25
100
AcDb2dPolyline
 66
     1
 10
0.0
 20
0.0
 30
0.0
  0
VERTEX
  5
C2
330
C1
100
AcDbEntity
  8
0
 62
     1
370
    25
100
AcDbVertex
100
AcDb2dVertex
 10
411.8235002904746
 20
335.1603906241683
 30
0.0
  0
VERTEX
  5
C3
330
C1
100
AcDbEntity
  8
0
 62
     1
370
    25
100
AcDbVertex
100
AcDb2dVertex
 10
421.2590429700459
 20
330.3855950325831
 30
0.0
  0
SEQEND
  5
C4
330
C1
100
AcDbEntity
  8
0
 62
     1
370
    25
  0
ENDBLK
  5
C0
330
BD
100
AcDbEntity
  8
0
100
AcDbBlockEnd
  0
BLOCK
  5
C7
330
C5
100
AcDbEntity
  8
0
100
AcDbBlockBegin
  2
block 25
 70
     0
 10
0.0
 20
0.0
 30
0.0
  3
block 25
  1

  0
POLYLINE
  5
C9
330
C5
100
AcDbEntity
  8
0
 62
     1
370
    25
100
AcDb2dPolyline
 66
     1
 10
0.0
 20
0.0
 30
0.0
  0
VERTEX
  5
CA
330
C9
100
AcDbEntity
  8
0
 62
     1
370
    25
100
AcDbVertex
100
AcDb2dVertex
 10
416.1939703561727
 20
323.5912465618536
 30
0.0
  0
VERTEX
  5
CB
330
C9
100
AcDbEntity
  8
0
 62
     1
370
    25
100
AcDbVertex
100
AcDb2dVertex
 10
421.5246655784235
 20
327.9631271932275
 30
0.0
  0
SEQEND
  5
CC
330
C9
100
AcDbEntity
  8
0
 62
     1
370
    25
  0
ENDBLK
  5
C8
330
C5
100
AcDbEntity
  8
0
100
AcDbBlockEnd
  0
BLOCK
  5
CF
330
CD
100
AcDbEntity
  8
0
100
AcDbBlockBegin
  2
block 26
 70
     0
 10
0.0
 20
0.0
 30
0.0
  3
block 26
  1

  0
POLYLINE
  5
D1
330
CD
100
AcDbEntity
  8
0
 62
     1
370
    25
100
AcDb2dPolyline
 66
     1
 10
0.0
 20
0.0
 30
0.0
  0
VERTEX
  5
D2
330
D1
100
AcDbEntity
  8
0
 62
     1
370
    25
100
AcDbVertex
100
AcDb2dVertex
 10
416.4595929645504
 20
321.168778722498
 30
0.0
  0
VERTEX
  5
D3
330
D1
100
AcDbEntity
  8
0
 62
     1
370
    25
100
AcDbVertex
100
AcDb2dVertex
 10
424.7315881664493
 20
316.9827888367068
 30
0.0
  0
SEQEND
  5
D4
330
D1
100
AcDbEntity
  8
0
 62
     1
370
    25
  0
ENDBLK
  5
D0
330
CD
100
AcDbEntity
  8
0
100
AcDbBlockEnd
  0
BLOCK
  5
D7
330
D5
100
AcDbEntity
  8
0
100
AcDbBlockBegin
  2
block 27
 70
     0
 10
0.0
 20
0.0
 30
0.0
  3
block 27
  1

  0
SPLINE
  5
D9
330
D5
100
AcDbEntity
  8
0
 62
     1
370
    25
100
AcDbSpline
210
0.0
220
0.0
230
1.0
 70
     8
 71
     3
 72
    11
 73
     7
 74
     0
 42
0.0000000001
 43
0.0000000001
 12
1.0
 22
0.0
 32
0.0
 13
1.0
 23
0.0
 33
0.0
 40
0.0
 40
0.0
 40
0.0
 40
0.0
 40
1.0
 40
1.0
 40
1.0
 40
2.0
 40
2.0
 40
2.0
 40
2.0
 10
417.4337515614321
 20
341.346035073948
 30
0.0
 10
418.478992072869
 20
341.579873957478
 30
0.0
 10
419.1367630559305
 20
342.6167726795223
 30
0.0
 10
418.9029241724006
 20
343.6620131909595
 30
0.0
 10
418.899974886142
 20
343.6751962571398
 30
0.0
 10
418.8968879369356
 20
343.6883481478494
 30
0.0
 10
418.8936638302622
 20
343.7014667094895
 30
0.0
  0
ENDBLK
  5
D8
330
D5
100
AcDbEntity
  8
0
100
AcDbBlockEnd
  0
BLOCK
  5
DC
330
DA
100
AcDbEntity
  8
0
100
AcDbBlockBegin
  2
block 28
 70
     0
 10
0.0
 20
0.0
 30
0.0
  3
block 28
  1

  0
POLYLINE
  5
DE
330
DA
100
AcDbEntity
  8
0
 62
     1
370
    25
100
AcDb2dPolyline
 66
     1
 10
0.0
 20
0.0
 30
0.0
  0
VERTEX
  5
DF
330
DE
100
AcDbEntity
  8
0
 62
     1
370
    25
100
AcDbVertex
100
AcDb2dVertex
 10
417.4337515614321
 20
341.346035073948
 30
0.0
  0
VERTEX
  5
E0
330
DE
100
AcDbEntity
  8
0
 62
     1
370
    25
100
AcDbVertex
100
AcDb2dVertex
 10
412.4566655821783
 20
340.2325724632976
 30
0.0
  0
SEQEND
  5
E1
330
DE
100
AcDbEntity
  8
0
 62
     1
370
    25
  0
ENDBLK
  5
DD
330
DA
100
AcDbEntity
  8
0
100
AcDbBlockEnd
  0
BLOCK
  5
E4
330
E2
100
AcDbEntity
  8
0
100
AcDbBlockBegin
  2
block 29
 70
     0
 10
0.0
 20
0.0
 30
0.0
  3
block 29
  1

  0
SPLINE
  5
E6
330
E2
100
AcDbEntity
  8
0
 62
     1
370
    25
100
AcDbSpline
210
0.0
220
0.0
230
1.0
 70
     8
 71
     3
 72
    11
 73
     7
 74
     0
 42
0.0000000001
 43
0.0000000001
 12
1.0
 22
0.0
 32
0.0
 13
1.0
 23
0.0
 33
0.0
 40
0.0
 40
0.0
 40
0.0
 40
0.0
 40
1.0
 40
1.0
 40
1.0
 40
2.0
 40
2.0
 40
2.0
 40
2.0
 10
412.4566655821783
 20
340.2325724632976
 30
0.0
 10
410.9933288661659
 20
339.9051980263553
 30
0.0
 10
410.0724494898796
 20
338.4535398154936
 30
0.0
 10
410.3998239268216
 20
336.9902030994814
 30
0.0
 10
410.5770250468788
 20
336.1981287166449
 30
0.0
 10
411.0992941231208
 20
335.5268704900021
 30
0.0
 10
411.8235002904752
 20
335.1603906241683
 30
0.0
  0
ENDBLK
  5
E5
330
E2
100
AcDbEntity
  8
0
100
AcDbBlockEnd
  0
BLOCK
  5
E9
330
E7
100
AcDbEntity
  8
0
100
AcDbBlockBegin
  2
block 30
 70
     0
 10
0.0
 20
0.0
 30
0.0
  3
block 30
  1

  0
SPLINE
  5
EB
330
E7
100
AcDbEntity
  8
0
 62
     1
370
    25
100
AcDbSpline
210
0.0
220
0.0
230
1.0
 70
     8
 71
     3
 72
    11
 73
     7
 74
     0
 42
0.0000000001
 43
0.0000000001
 12
1.0
 22
0.0
 32
0.0
 13
1.0
 23
0.0
 33
0.0
 40
0.0
 40
0.0
 40
0.0
 40
0.0
 40
1.0
 40
1.0
 40
1.0
 40
2.0
 40
2.0
 40
2.0
 40
2.0
 10
416.1939703561727
 20
323.5912465618539
 30
0.0
 10
415.5728382912418
 20
323.0818354754981
 30
0.0
 10
415.4822705435585
 20
322.1653491702716
 30
0.0
 10
415.9916816299143
 20
321.5442171053406
 30
0.0
 10
416.1198690773846
 20
321.3879163571274
 30
0.0
 10
416.2792285502146
 20
321.2600509725104
 30
0.0
 10
416.4595929645504
 20
321.1687787224982
 30
0.0
  0
ENDBLK
  5
EA
330
E7
100
AcDbEntity
  8
0
100
AcDbBlockEnd
  0
BLOCK
  5
EE
330
EC
100
AcDbEntity
  8
0
100
AcDbBlockBegin
  2
block 31
 70
     0
 10
0.0
 20
0.0
 30
0.0
  3
block 31
  1

  0
SPLINE
  5
F0
330
EC
100
AcDbEntity
  8
0
 62
     1
370
    25
100
AcDbSpline
210
0.0
220
0.0
230
1.0
 70
     8
 71
     3
 72
    11
 73
     7
 74
     0
 42
0.0000000001
 43
0.0000000001
 12
1.0
 22
0.0
 32
0.0
 13
1.0
 23
0.0
 33
0.0
 40
0.0
 40
0.0
 40
0.0
 40
0.0
 40
1.0
 40
1.0
 40
1.0
 40
2.0
 40
2.0
 40
2.0
 40
2.0
 10
421.5246655784235
 20
327.9631271932275
 30
0.0
 10
422.1457976433545
 20
328.472538279583
 30
0.0
 10
422.2363653910379
 20
329.3890245848098
 30
0.0
 10
421.7269543046826
 20
330.0101566497408
 30
0.0
 10
421.5987668572124
 20
330.1664573979539
 30
0.0
 10
421.4394073843818
 20
330.294322782571
 30
0.0
 10
421.2590429700465
 20
330.3855950325831
 30
0.0
  0
ENDBLK
  5
EF
330
EC
100
AcDbEntity
  8
0
100
AcDbBlockEnd
  0
BLOCK
  5
F3
330
F1
100
AcDbEntity
  8
0
100
AcDbBlockBegin
  2
block 32
 70
     0
 10
0.0
 20
0.0
 30
0.0
  3
block 32
  1

  0
SPLINE
  5
F5
330
F1
100
AcDbEntity
  8
0
 62
     1
370
    25
100
AcDbSpline
210
0.0
220
0.0
230
1.0
 70
     8
 71
     3
 72
     8
 73
     4
 74
     0
 42
0.0000000001
 43
0.0000000001
 12
1.0
 22
0.0
 32
0.0
 13
1.0
 23
0.0
 33
0.0
 40
0.0
 40
0.0
 40
0.0
 40
0.0
 40
1.0
 40
1.0
 40
1.0
 40
1.0
 10
407.8655425197683
 20
287.1643815918142
 30
0.0
 10
413.7274613121246
 20
286.5310822173978
 30
0.0
 10
419.6127856426228
 20
286.1372978350412
 30
0.0
 10
425.5068218956719
 20
285.9840115879005
 30
0.0
  0
ENDBLK
  5
F4
330
F1
100
AcDbEntity
  8
0
100
AcDbBlockEnd
  0
BLOCK
  5
F8
330
F6
100
AcDbEntity
  8
0
100
AcDbBlockBegin
  2
block 33
 70
     0
 10
0.0
 20
0.0
 30
0.0
  3
block 33
  1

  0
POLYLINE
  5
FA
330
F6
100
AcDbEntity
  8
0
 62
     1
370
    25
100
AcDb2dPolyline
 66
     1
 10
0.0
 20
0.0
 30
0.0
  0
VERTEX
  5
FB
330
FA
100
AcDbEntity
  8
0
 62
     1
370
    25
100
AcDbVertex
100
AcDb2dVertex
 10
428.8589329556908
 20
303.1538017123083
 30
0.0
  0
VERTEX
  5
FC
330
FA
100
AcDbEntity
  8
0
 62
     1
370
    25
100
AcDbVertex
100
AcDb2dVertex
 10
431.308026551972
 20
293.1886893366321
 30
0.0
  0
SEQEND
  5
FD
330
FA
100
AcDbEntity
  8
0
 62
     1
370
    25
  0
ENDBLK
  5
F9
330
F6
100
AcDbEntity
  8
0
100
AcDbBlockEnd
  0
BLOCK
  5
100
330
FE
100
AcDbEntity
  8
0
100
AcDbBlockBegin
  2
block 34
 70
     0
 10
0.0
 20
0.0
 30
0.0
  3
block 34
  1

  0
SPLINE
  5
102
330
FE
100
AcDbEntity
  8
0
 62
     1
370
    25
100
AcDbSpline
210
0.0
220
0.0
230
1.0
 70
     8
 71
     3
 72
    11
 73
     7
 74
     0
 42
0.0000000001
 43
0.0000000001
 12
1.0
 22
0.0
 32
0.0
 13
1.0
 23
0.0
 33
0.0
 40
0.0
 40
0.0
 40
0.0
 40
0.0
 40
1.0
 40
1.0
 40
1.0
 40
2.0
 40
2.0
 40
2.0
 40
2.0
 10
419.4641592066584
 20
310.0224811894584
 30
0.0
 10
418.3047126854536
 20
309.0715804949279
 30
0.0
 10
418.1356528897776
 20
307.3608060585051
 30
0.0
 10
419.0865535843085
 20
306.2013595373003
 30
0.0
 10
419.5448118732658
 20
305.6425987939326
 30
0.0
 10
420.2069134030325
 20
305.2895754328636
 30
0.0
 10
420.9262447056473
 20
305.2204617236188
 30
0.0
  0
ENDBLK
  5
101
330
FE
100
AcDbEntity
  8
0
100
AcDbBlockEnd
  0
BLOCK
  5
105
330
103
100
AcDbEntity
  8
0
100
AcDbBlockBegin
  2
block 35
 70
     0
 10
0.0
 20
0.0
 30
0.0
  3
block 35
  1

  0
POLYLINE
  5
107
330
103
100
AcDbEntity
  8
0
 62
     1
370
    25
100
AcDb2dPolyline
 66
     1
 10
0.0
 20
0.0
 30
0.0
  0
VERTEX
  5
108
330
107
100
AcDbEntity
  8
0
 62
     1
370
    25
100
AcDbVertex
100
AcDb2dVertex
 10
427.1610983023494
 20
304.6214138897467
 30
0.0
  0
VERTEX
  5
109
330
107
100
AcDbEntity
  8
0
 62
     1
370
    25
100
AcDbVertex
100
AcDb2dVertex
 10
420.9262447056473
 20
305.2204617236188
 30
0.0
  0
SEQEND
  5
10A
330
107
100
AcDbEntity
  8
0
 62
     1
370
    25
  0
ENDBLK
  5
106
330
103
100
AcDbEntity
  8
0
100
AcDbBlockEnd
  0
BLOCK
  5
10D
330
10B
100
AcDbEntity
  8
0
100
AcDbBlockBegin
  2
block 36
 70
     0
 10
0.0
 20
0.0
 30
0.0
  3
block 36
  1

  0
SPLINE
  5
10F
330
10B
100
AcDbEntity
  8
0
 62
     1
370
    25
100
AcDbSpline
210
0.0
220
0.0
230
1.0
 70
     8
 71
     3
 72
     8
 73
     4
 74
     0
 42
0.0000000001
 43
0.0000000001
 12
1.0
 22
0.0
 32
0.0
 13
1.0
 23
0.0
 33
0.0
 40
0.0
 40
0.0
 40
0.0
 40
0.0
 40
1.0
 40
1.0
 40
1.0
 40
1.0
 10
428.8589329556908
 20
303.153801712308
 30
0.0
 10
428.662262417561
 20
303.9540340988618
 30
0.0
 10
427.9813664763813
 20
304.5426021157043
 30
0.0
 10
427.1610983023494
 20
304.6214138897464
 30
0.0
  0
ENDBLK
  5
10E
330
10B
100
AcDbEntity
  8
0
100
AcDbBlockEnd
  0
BLOCK
  5
112
330
110
100
AcDbEntity
  8
0
100
AcDbBlockBegin
  2
block 37
 70
     0
 10
0.0
 20
0.0
 30
0.0
  3
block 37
  1

  0
POLYLINE
  5
114
330
110
100
AcDbEntity
  8
0
 62
     1
370
    25
100
AcDb2dPolyline
 66
     1
 10
0.0
 20
0.0
 30
0.0
  0
VERTEX
  5
115
330
114
100
AcDbEntity
  8
0
 62
     1
370
    25
100
AcDbVertex
100
AcDb2dVertex
 10
419.4641592066577
 20
310.0224811894584
 30
0.0
  0
VERTEX
  5
116
330
114
100
AcDbEntity
  8
0
 62
     1
370
    25
100
AcDbVertex
100
AcDb2dVertex
 10
424.9972107748264
 20
314.5603209973509
 30
0.0
  0
SEQEND
  5
117
330
114
100
AcDbEntity
  8
0
 62
     1
370
    25
  0
ENDBLK
  5
113
330
110
100
AcDbEntity
  8
0
100
AcDbBlockEnd
  0
BLOCK
  5
11A
330
118
100
AcDbEntity
  8
0
100
AcDbBlockBegin
  2
block 38
 70
     0
 10
0.0
 20
0.0
 30
0.0
  3
block 38
  1

  0
SPLINE
  5
11C
330
118
100
AcDbEntity
  8
0
 62
     1
370
    25
100
AcDbSpline
210
0.0
220
0.0
230
1.0
 70
     8
 71
     3
 72
    11
 73
     7
 74
     0
 42
0.0000000001
 43
0.0000000001
 12
1.0
 22
0.0
 32
0.0
 13
1.0
 23
0.0
 33
0.0
 40
0.0
 40
0.0
 40
0.0
 40
0.0
 40
1.0
 40
1.0
 40
1.0
 40
2.0
 40
2.0
 40
2.0
 40
2.0
 10
425.5068218956725
 20
285.9840115879007
 30
0.0
 10
428.7189701633174
 20
285.9004732226669
 30
0.0
 10
431.390652055259
 20
288.4367126635882
 30
0.0
 10
431.4741904204928
 20
291.6488609312329
 30
0.0
 10
431.4876721307824
 20
292.1672485275364
 30
0.0
 10
431.4317891668564
 20
292.6851118632774
 30
0.0
 10
431.3080265519727
 20
293.1886893366321
 30
0.0
  0
ENDBLK
  5
11B
330
118
100
AcDbEntity
  8
0
100
AcDbBlockEnd
  0
BLOCK
  5
11F
330
11D
100
AcDbEntity
  8
0
100
AcDbBlockBegin
  2
block 39
 70
     0
 10
0.0
 20
0.0
 30
0.0
  3
block 39
  1

  0
POLYLINE
  5
121
330
11D
100
AcDbEntity
  8
0
 62
     1
370
    25
100
AcDb2dPolyline
 66
     1
 10
0.0
 20
0.0
 30
0.0
  0
VERTEX
  5
122
330
121
100
AcDbEntity
  8
0
 62
     1
370
    25
100
AcDbVertex
100
AcDb2dVertex
 10
-261.1018065940801
 20
340.4755354593452
 30
0.0
  0
VERTEX
  5
123
330
121
100
AcDbEntity
  8
0
 62
     1
370
    25
100
AcDbVertex
100
AcDb2dVertex
 10
-249.4706345077795
 20
297.0674102816966
 30
0.0
  0
SEQEND
  5
124
330
121
100
AcDbEntity
  8
0
 62
     1
370
    25
  0
ENDBLK
  5
120
330
11D
100
AcDbEntity
  8
0
100
AcDbBlockEnd
  0
BLOCK
  5
127
330
125
100
AcDbEntity
  8
0
100
AcDbBlockBegin
  2
block 40
 70
     0
 10
0.0
 20
0.0
 30
0.0
  3
block 40
  1

  0
SPLINE
  5
129
330
125
100
AcDbEntity
  8
0
 62
     1
370
    25
100
AcDbSpline
210
0.0
220
0.0
230
1.0
 70
     8
 71
     3
 72
    11
 73
     7
 74
     0
 42
0.0000000001
 43
0.0000000001
 12
1.0
 22
0.0
 32
0.0
 13
1.0
 23
0.0
 33
0.0
 40
0.0
 40
0.0
 40
0.0
 40
0.0
 40
1.0
 40
1.0
 40
1.0
 40
2.0
 40
2.0
 40
2.0
 40
2.0
 10
-255.2036005336324
 20
348.0275715616212
 30
0.0
 10
-258.5168240336356
 20
348.0842642002031
 30
0.0
 10
-261.2486808294245
 20
345.4443243326766
 30
0.0
 10
-261.3053734680063
 20
342.1311008326734
 30
0.0
 10
-261.3149323943755
 20
341.5724593534104
 30
0.0
 10
-261.2464148133574
 20
341.0152206808806
 30
0.0
 10
-261.1018065940798
 20
340.4755354593449
 30
0.0
  0
ENDBLK
  5
128
330
125
100
AcDbEntity
  8
0
100
AcDbBlockEnd
  0
BLOCK
  5
12C
330
12A
100
AcDbEntity
  8
0
100
AcDbBlockBegin
  2
block 41
 70
     0
 10
0.0
 20
0.0
 30
0.0
  3
block 41
  1

  0
SPLINE
  5
12E
330
12A
100
AcDbEntity
  8
0
 62
     1
370
    25
100
AcDbSpline
210
0.0
220
0.0
230
1.0
 70
     8
 71
     3
 72
     8
 73
     4
 74
     0
 42
0.0000000001
 43
0.0000000001
 12
1.0
 22
0.0
 32
0.0
 13
1.0
 23
0.0
 33
0.0
 40
0.0
 40
0.0
 40
0.0
 40
0.0
 40
1.0
 40
1.0
 40
1.0
 40
1.0
 10
-249.4706345077798
 20
297.0674102816969
 30
0.0
 10
-248.7578936584856
 20
294.4074252195006
 30
0.0
 10
-246.3259319155531
 20
292.574127252716
 30
0.0
 10
-243.5725151128811
 20
292.6212012383411
 30
0.0
  0
ENDBLK
  5
12D
330
12A
100
AcDbEntity
  8
0
100
AcDbBlockEnd
  0
BLOCK
  5
131
330
12F
100
AcDbEntity
  8
0
100
AcDbBlockBegin
  2
block 42
 70
     0
 10
0.0
 20
0.0
 30
0.0
  3
block 42
  1

  0
POLYLINE
  5
133
330
12F
100
AcDbEntity
  8
0
 62
     1
370
    25
100
AcDb2dPolyline
 66
     1
 10
0.0
 20
0.0
 30
0.0
  0
VERTEX
  5
134
330
133
100
AcDbEntity
  8
0
 62
     1
370
    25
100
AcDbVertex
100
AcDb2dVertex
 10
252.8223994720051
 20
416.1073225790617
 30
0.0
  0
VERTEX
  5
135
330
133
100
AcDbEntity
  8
0
 62
     1
370
    25
100
AcDbVertex
100
AcDb2dVertex
 10
-206.1695723875306
 20
408.2601337828004
 30
0.0
  0
SEQEND
  5
136
330
133
100
AcDbEntity
  8
0
 62
     1
370
    25
  0
ENDBLK
  5
132
330
12F
100
AcDbEntity
  8
0
100
AcDbBlockEnd
  0
BLOCK
  5
139
330
137
100
AcDbEntity
  8
0
100
AcDbBlockBegin
  2
block 43
 70
     0
 10
0.0
 20
0.0
 30
0.0
  3
block 43
  1

  0
POLYLINE
  5
13B
330
137
100
AcDbEntity
  8
0
 62
     1
370
    25
100
AcDb2dPolyline
 66
     1
 10
0.0
 20
0.0
 30
0.0
  0
VERTEX
  5
13C
330
13B
100
AcDbEntity
  8
0
 62
     1
370
    25
100
AcDbVertex
100
AcDb2dVertex
 10
252.8223994720051
 20
454.3341982287262
 30
0.0
  0
VERTEX
  5
13D
330
13B
100
AcDbEntity
  8
0
 62
     1
370
    25
100
AcDbVertex
100
AcDb2dVertex
 10
-220.686062305493
 20
462.4364117041966
 30
0.0
  0
SEQEND
  5
13E
330
13B
100
AcDbEntity
  8
0
 62
     1
370
    25
  0
ENDBLK
  5
13A
330
137
100
AcDbEntity
  8
0
100
AcDbBlockEnd
  0
BLOCK
  5
141
330
13F
100
AcDbEntity
  8
0
100
AcDbBlockBegin
  2
block 44
 70
     0
 10
0.0
 20
0.0
 30
0.0
  3
block 44
  1

  0
POLYLINE
  5
143
330
13F
100
AcDbEntity
  8
0
 62
     1
370
    25
100
AcDb2dPolyline
 66
     1
 10
0.0
 20
0.0
 30
0.0
  0
VERTEX
  5
144
330
143
100
AcDbEntity
  8
0
 62
     1
370
    25
100
AcDbVertex
100
AcDb2dVertex
 10
-220.686062305493
 20
462.4364117041966
 30
0.0
  0
VERTEX
  5
145
330
143
100
AcDbEntity
  8
0
 62
     1
370
    25
100
AcDbVertex
100
AcDb2dVertex
 10
-206.1695723875306
 20
408.2601337828004
 30
0.0
  0
SEQEND
  5
146
330
143
100
AcDbEntity
  8
0
 62
     1
370
    25
  0
ENDBLK
  5
142
330
13F
100
AcDbEntity
  8
0
100
AcDbBlockEnd
  0
BLOCK
  5
149
330
147
100
AcDbEntity
  8
0
100
AcDbBlockBegin
  2
block 45
 70
     0
 10
0.0
 20
0.0
 30
0.0
  3
block 45
  1

  0
POLYLINE
  5
14B
330
147
100
AcDbEntity
  8
0
 62
     1
370
    25
100
AcDb2dPolyline
 66
     1
 10
0.0
 20
0.0
 30
0.0
  0
VERTEX
  5
14C
330
14B
100
AcDbEntity
  8
0
 62
     1
370
    25
100
AcDbVertex
100
AcDb2dVertex
 10
252.8223994720051
 20
454.3341982287262
 30
0.0
  0
VERTEX
  5
14D
330
14B
100
AcDbEntity
  8
0
 62
     1
370
    25
100
AcDbVertex
100
AcDb2dVertex
 10
252.8223994720051
 20
416.1073225790617
 30
0.0
  0
SEQEND
  5
14E
330
14B
100
AcDbEntity
  8
0
 62
     1
370
    25
  0
ENDBLK
  5
14A
330
147
100
AcDbEntity
  8
0
100
AcDbBlockEnd
  0
BLOCK
  5
151
330
14F
100
AcDbEntity
  8
0
100
AcDbBlockBegin
  2
block 46
 70
     0
 10
0.0
 20
0.0
 30
0.0
  3
block 46
  1

  0
SPLINE
  5
153
330
14F
100
AcDbEntity
  8
0
 62
     1
370
    25
100
AcDbSpline
210
0.0
220
0.0
230
1.0
 70
     8
 71
     3
 72
   119
 73
   115
 74
     0
 42
0.0000000001
 43
0.0000000001
 12
1.0
 22
0.0
 32
0.0
 13
1.0
 23
0.0
 33
0.0
 40
0.0
 40
0.0
 40
0.0
 40
0.0
 40
1.0
 40
1.0
 40
1.0
 40
2.0
 40
2.0
 40
2.0
 40
3.0
 40
3.0
 40
3.0
 40
4.0
 40
4.0
 40
4.0
 40
5.0
 40
5.0
 40
5.0
 40
6.0
 40
6.0
 40
6.0
 40
7.0
 40
7.0
 40
7.0
 40
8.0
 40
8.0
 40
8.0
 40
9.0
 40
9.0
 40
9.0
 40
10.0
 40
10.0
 40
10.0
 40
11.0
 40
11.0
 40
11.0
 40
12.0
 40
12.0
 40
12.0
 40
13.0
 40
13.0
 40
13.0
 40
14.0
 40
14.0
 40
14.0
 40
15.0
 40
15.0
 40
15.0
 40
16.0
 40
16.0
 40
16.0
 40
17.0
 40
17.0
 40
17.0
 40
18.0
 40
18.0
 40
18.0
 40
19.0
 40
19.0
 40
19.0
 40
20.0
 40
20.0
 40
20.0
 40
21.0
 40
21.0
 40
21.0
 40
22.0
 40
22.0
 40
22.0
 40
23.0
 40
23.0
 40
23.0
 40
24.0
 40
24.0
 40
24.0
 40
25.0
 40
25.0
 40
25.0
 40
26.0
 40
26.0
 40
26.0
 40
27.0
 40
27.0
 40
27.0
 40
28.0
 40
28.0
 40
28.0
 40
29.0
 40
29.0
 40
29.0
 40
30.0
 40
30.0
 40
30.0
 40
31.0
 40
31.0
 40
31.0
 40
32.0
 40
32.0
 40
32.0
 40
33.0
 40
33.0
 40
33.0
 40
34.0
 40
34.0
 40
34.0
 40
35.0
 40
35.0
 40
35.0
 40
36.0
 40
36.0
 40
36.0
 40
37.0
 40
37.0
 40
37.0
 40
38.0
 40
38.0
 40
38.0
 40
38.0
 10
534.3229847982119
 20
510.4537650611013
 30
0.0
 10
538.7732456173386
 20
508.8054988903235
 30
0.0
 10
543.2666451932344
 20
507.2866487894968
 30
0.0
 10
547.8674218952369
 20
506.0899295682767
 30
0.0
 10
553.6488313489627
 20
504.5861130896363
 30
0.0
 10
559.599798270421
 20
503.5909682266848
 30
0.0
 10
565.5777182191152
 20
503.6163825225055
 30
0.0
 10
572.9938699520553
 20
503.6479112608649
 30
0.0
 10
580.451504151739
 20
505.2501471036102
 30
0.0
 10
587.2871208681773
 20
508.1829333158603
 30
0.0
 10
592.2873660574539
 20
510.3282628094985
 30
0.0
 10
596.9547756355205
 20
513.1855570909586
 30
0.0
 10
601.1887378998051
 20
516.5549483061918
 30
0.0
 10
605.0524147174867
 20
519.6296660092307
 30
0.0
 10
608.5551441216445
 20
523.1308255377047
 30
0.0
 10
611.8530121914043
 20
526.8297110025608
 30
0.0
 10
613.8913204144675
 20
529.1158754274861
 30
0.0
 10
615.8513698428665
 20
531.4775728635608
 30
0.0
 10
618.3277253981693
 20
533.2989938944025
 30
0.0
 10
620.174438728723
 20
534.6572974267866
 30
0.0
 10
622.3082831663177
 20
535.7151393642773
 30
0.0
 10
624.6120392987052
 20
535.9628281968177
 30
0.0
 10
626.376910262732
 20
536.1525786754028
 30
0.0
 10
628.2414998283197
 20
535.8668625607431
 30
0.0
 10
629.7537355482172
 20
535.0114543437963
 30
0.0
 10
631.5509937045911
 20
533.9948209084746
 30
0.0
 10
632.8505595192745
 20
532.1735094487805
 30
0.0
 10
633.7528418734021
 20
530.2546319013505
 30
0.0
 10
635.1133053867753
 20
527.3613436995279
 30
0.0
 10
635.570557615832
 20
524.2462421071203
 30
0.0
 10
635.8475946891126
 20
521.121514707094
 30
0.0
 10
636.2245056268573
 20
516.870300526287
 30
0.0
 10
636.2678419355364
 20
512.6012691691607
 30
0.0
 10
635.8475946891126
 20
508.3732049649542
 30
0.0
 10
635.3862734528115
 20
503.7318995847442
 30
0.0
 10
634.3663210481964
 20
499.1399607712431
 30
0.0
 10
632.9911060149523
 20
494.6735369773455
 30
0.0
 10
631.4457662229718
 20
489.6545819414338
 30
0.0
 10
629.451829520972
 20
484.7941171192908
 30
0.0
 10
627.2781009399312
 20
480.0224951367154
 30
0.0
 10
624.3723020313632
 20
473.6438818774527
 30
0.0
 10
621.145218046827
 20
467.4240292841989
 30
0.0
 10
617.9468713322954
 20
461.1854614084717
 30
0.0
 10
615.3439165697605
 20
456.1082413904716
 30
0.0
 10
612.7599957021145
 20
451.0186254587557
 30
0.0
 10
610.5199675074364
 20
445.7733329714672
 30
0.0
 10
608.077530356933
 20
440.0540758359327
 30
0.0
 10
606.0439420254513
 20
434.14973718835
 30
0.0
 10
604.6165353994804
 20
428.0779291377855
 30
0.0
 10
603.2385785914825
 20
422.2164674576291
 30
0.0
 10
602.4255309451377
 20
416.1989387118036
 30
0.0
 10
602.5217825837685
 20
410.1922536550124
 30
0.0
 10
602.6353120182639
 20
403.1073295187543
 30
0.0
 10
604.0138909985047
 20
396.0374915088281
 30
0.0
 10
606.1400071163775
 20
389.2622317867358
 30
0.0
 10
608.0040893950418
 20
383.3219910467627
 30
0.0
 10
610.4428025647358
 20
377.6081922793605
 30
0.0
 10
612.9956021157217
 20
371.9473556436906
 30
0.0
 10
616.3210239143913
 20
364.5732280747287
 30
0.0
 10
619.8400405871212
 20
357.2889727333406
 30
0.0
 10
623.4694216476768
 20
350.0659443148446
 30
0.0
 10
626.7674804638712
 20
343.502298294276
 30
0.0
 10
630.1566733182167
 20
336.9892107630591
 30
0.0
 10
633.5623871137605
 20
330.4678083826755
 30
0.0
 10
636.9550730923684
 20
323.9713522078391
 30
0.0
 10
640.3641538593916
 20
317.4666446754587
 30
0.0
 10
643.0840714810379
 20
310.6793851938621
 30
0.0
 10
644.9400116562829
 20
306.0480877415213
 30
0.0
 10
646.4750749051444
 20
301.2852330496262
 30
0.0
 10
647.6544589050299
 20
296.4089178665206
 30
0.0
 10
649.6232095643613
 20
288.2688644718837
 30
0.0
 10
650.6008327877657
 20
279.8126447390191
 30
0.0
 10
649.7492394474425
 20
271.4831289370719
 30
0.0
 10
649.0461994150093
 20
264.6066272287159
 30
0.0
 10
647.0964629323781
 20
257.8164801620322
 30
0.0
 10
643.8458073394864
 20
251.6947057482585
 30
0.0
 10
640.0685650863661
 20
244.5812406889807
 30
0.0
 10
634.5347827890562
 20
238.3702324542802
 30
0.0
 10
627.8494097654461
 20
233.8090458730342
 30
0.0
 10
620.5180344532979
 20
228.8071154530331
 30
0.0
 10
611.8017611823574
 20
225.78925332054
 30
0.0
 10
602.9026366496431
 20
225.4370152751543
 30
0.0
 10
594.5307650648747
 20
225.1056465351846
 30
0.0
 10
585.997067401899
 20
227.1333946413722
 30
0.0
 10
578.9080541519342
 20
231.5257704763592
 30
0.0
 10
572.267452334439
 20
235.6403091186845
 30
0.0
 10
566.8945499345913
 20
241.82979033515
 30
0.0
 10
563.4829376766975
 20
248.8406310118511
 30
0.0
 10
560.0942392694703
 20
255.8043838766411
 30
0.0
 10
558.6405737478007
 20
263.5785000489404
 30
0.0
 10
558.34124142719
 20
271.2928572879786
 30
0.0
 10
558.0313518766311
 20
279.2792942112576
 30
0.0
 10
558.9586563857268
 20
287.2016825589831
 30
0.0
 10
560.0551401770274
 20
295.0770007153146
 30
0.0
 10
561.1168079151909
 20
302.7022581798429
 30
0.0
 10
562.3370817898666
 20
310.2833871842867
 30
0.0
 10
563.4829376766975
 20
317.9097858971797
 30
0.0
 10
564.7636472046393
 20
326.433721243443
 30
0.0
 10
565.9513917903832
 20
335.0142087211362
 30
0.0
 10
565.9585722849833
 20
343.5966770305535
 30
0.0
 10
565.967198507402
 20
353.9071479189165
 30
0.0
 10
564.272010845273
 20
364.2204775835374
 30
0.0
 10
561.1977578280564
 20
374.2306466479185
 30
0.0
 10
557.9729006715394
 20
384.7312024461641
 30
0.0
 10
553.2305508608727
 20
394.8981671044432
 30
0.0
 10
545.9630961124645
 20
402.9618841667936
 30
0.0
 10
539.8496083647561
 20
409.7451992569175
 30
0.0
 10
531.9492510554429
 20
415.0401686337552
 30
0.0
 10
523.4919576049488
 20
418.5642842528917
 30
0.0
 10
513.610210383203
 20
422.681963263602
 30
0.0
 10
502.9681192334403
 20
424.3820259579784
 30
0.0
 10
492.3561395584913
 20
425.7946693486615
 30
0.0
 10
491.1534578911757
 20
425.9547676866219
 30
0.0
 10
489.9511629830043
 20
426.1111743407813
 30
0.0
 10
488.7492175306753
 20
426.2642453776832
 30
0.0
  0
ENDBLK
  5
152
330
14F
100
AcDbEntity
  8
0
100
AcDbBlockEnd
  0
BLOCK
  5
156
330
154
100
AcDbEntity
  8
0
100
AcDbBlockBegin
  2
block 47
 70
     0
 10
0.0
 20
0.0
 30
0.0
  3
block 47
  1

  0
SPLINE
  5
158
330
154
100
AcDbEntity
  8
0
 62
     1
370
    25
100
AcDbSpline
210
0.0
220
0.0
230
1.0
 70
     8
 71
     3
 72
    20
 73
    16
 74
     0
 42
0.0000000001
 43
0.0000000001
 12
1.0
 22
0.0
 32
0.0
 13
1.0
 23
0.0
 33
0.0
 40
0.0
 40
0.0
 40
0.0
 40
0.0
 40
1.0
 40
1.0
 40
1.0
 40
2.0
 40
2.0
 40
2.0
 40
3.0
 40
3.0
 40
3.0
 40
4.0
 40
4.0
 40
4.0
 40
5.0
 40
5.0
 40
5.0
 40
5.0
 10
479.3315724085592
 20
429.44641773767
 30
0.0
 10
479.3315724085592
 20
429.44641773767
 30
0.0
 10
554.0983318811667
 20
449.4801105590473
 30
0.0
 10
554.0983318811667
 20
449.4801105590473
 30
0.0
 10
555.6987301911478
 20
449.9089359937753
 30
0.0
 10
556.6484776594539
 20
451.5539468632409
 30
0.0
 10
556.2196522247261
 20
453.1543451732223
 30
0.0
 10
556.2196522247261
 20
453.1543451732219
 30
0.0
 10
545.8668904206259
 20
491.7913782247845
 30
0.0
 10
545.8668904206259
 20
491.7913782247845
 30
0.0
 10
545.4380649858981
 20
493.3917765347658
 30
0.0
 10
543.7930541164325
 20
494.3415240030717
 30
0.0
 10
542.1926558064507
 20
493.9126985683442
 30
0.0
 10
542.1926558064514
 20
493.9126985683442
 30
0.0
 10
534.6403773953361
 20
491.8890716670711
 30
0.0
 10
534.6403773953361
 20
491.8890716670711
 30
0.0
  0
ENDBLK
  5
157
330
154
100
AcDbEntity
  8
0
100
AcDbBlockEnd
  0
BLOCK
  5
15B
330
159
100
AcDbEntity
  8
0
100
AcDbBlockBegin
  2
block 48
 70
     0
 10
0.0
 20
0.0
 30
0.0
  3
block 48
  1

  0
SPLINE
  5
15D
330
159
100
AcDbEntity
  8
0
 62
     1
370
    25
100
AcDbSpline
210
0.0
220
0.0
230
1.0
 70
     8
 71
     3
 72
     8
 73
     4
 74
     0
 42
0.0000000001
 43
0.0000000001
 12
1.0
 22
0.0
 32
0.0
 13
1.0
 23
0.0
 33
0.0
 40
0.0
 40
0.0
 40
0.0
 40
0.0
 40
1.0
 40
1.0
 40
1.0
 40
1.0
 10
479.6135921391533
 20
428.4446513302067
 30
0.0
 10
482.5031650712095
 20
427.1751673168645
 30
0.0
 10
485.5977853385297
 20
426.4365721838016
 30
0.0
 10
488.7492175306759
 20
426.2642453776832
 30
0.0
  0
ENDBLK
  5
15C
330
159
100
AcDbEntity
  8
0
100
AcDbBlockEnd
  0
BLOCK
  5
160
330
15E
100
AcDbEntity
  8
0
100
AcDbBlockBegin
  2
block 49
 70
     0
 10
0.0
 20
0.0
 30
0.0
  3
block 49
  1

  0
SPLINE
  5
162
330
15E
100
AcDbEntity
  8
0
 62
     1
370
    25
100
AcDbSpline
210
0.0
220
0.0
230
1.0
 70
     8
 71
     3
 72
    11
 73
     7
 74
     0
 42
0.0000000001
 43
0.0000000001
 12
1.0
 22
0.0
 32
0.0
 13
1.0
 23
0.0
 33
0.0
 40
0.0
 40
0.0
 40
0.0
 40
0.0
 40
1.0
 40
1.0
 40
1.0
 40
2.0
 40
2.0
 40
2.0
 40
2.0
 10
479.3315724085592
 20
429.44641773767
 30
0.0
 10
479.11088734689
 20
429.169816756164
 30
0.0
 10
479.1562161560697
 20
428.7666867669805
 30
0.0
 10
479.4328171375757
 20
428.5460017053113
 30
0.0
 10
479.4871760134776
 20
428.5026316788732
 30
0.0
 10
479.5482329472251
 20
428.4684004904677
 30
0.0
 10
479.6135921391526
 20
428.4446513302067
 30
0.0
  0
ENDBLK
  5
161
330
15E
100
AcDbEntity
  8
0
100
AcDbBlockEnd
  0
BLOCK
  5
165
330
163
100
AcDbEntity
  8
0
100
AcDbBlockBegin
  2
block 50
 70
     0
 10
0.0
 20
0.0
 30
0.0
  3
block 50
  1

  0
SPLINE
  5
167
330
163
100
AcDbEntity
  8
0
 62
     1
370
    25
100
AcDbSpline
210
0.0
220
0.0
230
1.0
 70
    11
 71
     3
 72
    20
 73
    16
 74
     0
 42
0.0000000001
 43
0.0000000001
 12
1.0
 22
0.0
 32
0.0
 13
1.0
 23
0.0
 33
0.0
 40
0.0
 40
0.0
 40
0.0
 40
0.0
 40
1.0
 40
1.0
 40
1.0
 40
2.0
 40
2.0
 40
2.0
 40
3.0
 40
3.0
 40
3.0
 40
4.0
 40
4.0
 40
4.0
 40
5.0
 40
5.0
 40
5.0
 40
5.0
 10
505.8959379678105
 20
430.3801364933139
 30
0.0
 10
505.8959379678105
 20
431.20856361806
 30
0.0
 10
506.5675108430641
 20
431.880136493314
 30
0.0
 10
507.3959379678102
 20
431.880136493314
 30
0.0
 10
508.224365092557
 20
431.880136493314
 30
0.0
 10
508.8959379678106
 20
431.20856361806
 30
0.0
 10
508.8959379678106
 20
430.3801364933139
 30
0.0
 10
508.8959379678106
 20
429.5517093685678
 30
0.0
 10
508.224365092557
 20
428.8801364933138
 30
0.0
 10
507.3959379678102
 20
428.8801364933138
 30
0.0
 10
506.5675108430641
 20
428.8801364933138
 30
0.0
 10
505.8959379678105
 20
429.5517093685678
 30
0.0
 10
505.8959379678105
 20
430.3801364933139
 30
0.0
 10
505.8959379678105
 20
430.3801364933139
 30
0.0
 10
505.8959379678105
 20
430.3801364933139
 30
0.0
 10
505.8959379678105
 20
430.3801364933139
 30
0.0
  0
ENDBLK
  5
166
330
163
100
AcDbEntity
  8
0
100
AcDbBlockEnd
  0
BLOCK
  5
16A
330
168
100
AcDbEntity
  8
0
100
AcDbBlockBegin
  2
block 51
 70
     0
 10
0.0
 20
0.0
 30
0.0
  3
block 51
  1

  0
SPLINE
  5
16C
330
168
100
AcDbEntity
  8
0
 62
     1
370
    25
100
AcDbSpline
210
0.0
220
0.0
230
1.0
 70
    11
 71
     3
 72
    20
 73
    16
 74
     0
 42
0.0000000001
 43
0.0000000001
 12
1.0
 22
0.0
 32
0.0
 13
1.0
 23
0.0
 33
0.0
 40
0.0
 40
0.0
 40
0.0
 40
0.0
 40
1.0
 40
1.0
 40
1.0
 40
2.0
 40
2.0
 40
2.0
 40
3.0
 40
3.0
 40
3.0
 40
4.0
 40
4.0
 40
4.0
 40
5.0
 40
5.0
 40
5.0
 40
5.0
 10
607.8338189243018
 20
235.904203462598
 30
0.0
 10
607.8338189243018
 20
236.7326305873441
 30
0.0
 10
608.5053917995554
 20
237.4042034625981
 30
0.0
 10
609.3338189243015
 20
237.4042034625981
 30
0.0
 10
610.1622460490476
 20
237.4042034625981
 30
0.0
 10
610.8338189243012
 20
236.7326305873441
 30
0.0
 10
610.8338189243012
 20
235.904203462598
 30
0.0
 10
610.8338189243012
 20
235.0757763378519
 30
0.0
 10
610.1622460490476
 20
234.404203462598
 30
0.0
 10
609.3338189243015
 20
234.404203462598
 30
0.0
 10
608.5053917995554
 20
234.404203462598
 30
0.0
 10
607.8338189243018
 20
235.0757763378519
 30
0.0
 10
607.8338189243018
 20
235.904203462598
 30
0.0
 10
607.8338189243018
 20
235.904203462598
 30
0.0
 10
607.8338189243018
 20
235.904203462598
 30
0.0
 10
607.8338189243018
 20
235.904203462598
 30
0.0
  0
ENDBLK
  5
16B
330
168
100
AcDbEntity
  8
0
100
AcDbBlockEnd
  0
BLOCK
  5
16F
330
16D
100
AcDbEntity
  8
0
100
AcDbBlockBegin
  2
block 52
 70
     0
 10
0.0
 20
0.0
 30
0.0
  3
block 52
  1

  0
SPLINE
  5
171
330
16D
100
AcDbEntity
  8
0
 62
     1
370
    25
100
AcDbSpline
210
0.0
220
0.0
230
1.0
 70
    11
 71
     3
 72
    20
 73
    16
 74
     0
 42
0.0000000001
 43
0.0000000001
 12
1.0
 22
0.0
 32
0.0
 13
1.0
 23
0.0
 33
0.0
 40
0.0
 40
0.0
 40
0.0
 40
0.0
 40
1.0
 40
1.0
 40
1.0
 40
2.0
 40
2.0
 40
2.0
 40
3.0
 40
3.0
 40
3.0
 40
4.0
 40
4.0
 40
4.0
 40
5.0
 40
5.0
 40
5.0
 40
5.0
 10
601.5051561361463
 20
257.7784977483796
 30
0.0
 10
601.5051561361463
 20
260.4018503100758
 30
0.0
 10
603.6318035744504
 20
262.5284977483796
 30
0.0
 10
606.2551561361463
 20
262.5284977483796
 30
0.0
 10
608.8785086978429
 20
262.5284977483796
 30
0.0
 10
611.0051561361463
 20
260.4018503100758
 30
0.0
 10
611.0051561361463
 20
257.7784977483796
 30
0.0
 10
611.0051561361463
 20
255.1551451866833
 30
0.0
 10
608.8785086978429
 20
253.0284977483796
 30
0.0
 10
606.2551561361463
 20
253.0284977483796
 30
0.0
 10
603.6318035744504
 20
253.0284977483796
 30
0.0
 10
601.5051561361463
 20
255.1551451866833
 30
0.0
 10
601.5051561361463
 20
257.7784977483796
 30
0.0
 10
601.5051561361463
 20
257.7784977483796
 30
0.0
 10
601.5051561361463
 20
257.7784977483796
 30
0.0
 10
601.5051561361463
 20
257.7784977483796
 30
0.0
  0
ENDBLK
  5
170
330
16D
100
AcDbEntity
  8
0
100
AcDbBlockEnd
  0
BLOCK
  5
174
330
172
100
AcDbEntity
  8
0
100
AcDbBlockBegin
  2
block 53
 70
     0
 10
0.0
 20
0.0
 30
0.0
  3
block 53
  1

  0
SPLINE
  5
176
330
172
100
AcDbEntity
  8
0
 62
     1
370
    25
100
AcDbSpline
210
0.0
220
0.0
230
1.0
 70
    11
 71
     3
 72
    20
 73
    16
 74
     0
 42
0.0000000001
 43
0.0000000001
 12
1.0
 22
0.0
 32
0.0
 13
1.0
 23
0.0
 33
0.0
 40
0.0
 40
0.0
 40
0.0
 40
0.0
 40
1.0
 40
1.0
 40
1.0
 40
2.0
 40
2.0
 40
2.0
 40
3.0
 40
3.0
 40
3.0
 40
4.0
 40
4.0
 40
4.0
 40
5.0
 40
5.0
 40
5.0
 40
5.0
 10
565.0746320177747
 20
258.4620616410346
 30
0.0
 10
565.0746320177747
 20
259.2904887657807
 30
0.0
 10
565.7462048930283
 20
259.9620616410347
 30
0.0
 10
566.5746320177744
 20
259.9620616410347
 30
0.0
 10
567.4030591425205
 20
259.9620616410347
 30
0.0
 10
568.0746320177742
 20
259.2904887657807
 30
0.0
 10
568.0746320177742
 20
258.4620616410346
 30
0.0
 10
568.0746320177742
 20
257.6336345162885
 30
0.0
 10
567.4030591425205
 20
256.9620616410346
 30
0.0
 10
566.5746320177744
 20
256.9620616410346
 30
0.0
 10
565.7462048930283
 20
256.9620616410346
 30
0.0
 10
565.0746320177747
 20
257.6336345162885
 30
0.0
 10
565.0746320177747
 20
258.4620616410346
 30
0.0
 10
565.0746320177747
 20
258.4620616410346
 30
0.0
 10
565.0746320177747
 20
258.4620616410346
 30
0.0
 10
565.0746320177747
 20
258.4620616410346
 30
0.0
  0
ENDBLK
  5
175
330
172
100
AcDbEntity
  8
0
100
AcDbBlockEnd
  0
BLOCK
  5
179
330
177
100
AcDbEntity
  8
0
100
AcDbBlockBegin
  2
block 54
 70
     0
 10
0.0
 20
0.0
 30
0.0
  3
block 54
  1

  0
SPLINE
  5
17B
330
177
100
AcDbEntity
  8
0
 62
     1
370
    25
100
AcDbSpline
210
0.0
220
0.0
230
1.0
 70
    11
 71
     3
 72
    20
 73
    16
 74
     0
 42
0.0000000001
 43
0.0000000001
 12
1.0
 22
0.0
 32
0.0
 13
1.0
 23
0.0
 33
0.0
 40
0.0
 40
0.0
 40
0.0
 40
0.0
 40
1.0
 40
1.0
 40
1.0
 40
2.0
 40
2.0
 40
2.0
 40
3.0
 40
3.0
 40
3.0
 40
4.0
 40
4.0
 40
4.0
 40
5.0
 40
5.0
 40
5.0
 40
5.0
 10
597.12405148923
 20
329.5533307792218
 30
0.0
 10
597.12405148923
 20
331.762469778545
 30
0.0
 10
598.914912489907
 20
333.5533307792216
 30
0.0
 10
601.1240514892296
 20
333.5533307792216
 30
0.0
 10
603.3331904885534
 20
333.5533307792216
 30
0.0
 10
605.1240514892297
 20
331.762469778545
 30
0.0
 10
605.1240514892297
 20
329.5533307792218
 30
0.0
 10
605.1240514892297
 20
327.3441917798986
 30
0.0
 10
603.3331904885534
 20
325.5533307792217
 30
0.0
 10
601.1240514892296
 20
325.5533307792217
 30
0.0
 10
598.914912489907
 20
325.5533307792217
 30
0.0
 10
597.12405148923
 20
327.3441917798986
 30
0.0
 10
597.12405148923
 20
329.5533307792218
 30
0.0
 10
597.12405148923
 20
329.5533307792218
 30
0.0
 10
597.12405148923
 20
329.5533307792218
 30
0.0
 10
597.12405148923
 20
329.5533307792218
 30
0.0
  0
ENDBLK
  5
17A
330
177
100
AcDbEntity
  8
0
100
AcDbBlockEnd
  0
BLOCK
  5
17E
330
17C
100
AcDbEntity
  8
0
100
AcDbBlockBegin
  2
block 55
 70
     0
 10
0.0
 20
0.0
 30
0.0
  3
block 55
  1

  0
SPLINE
  5
180
330
17C
100
AcDbEntity
  8
0
 62
     1
370
    25
100
AcDbSpline
210
0.0
220
0.0
230
1.0
 70
    11
 71
     3
 72
    20
 73
    16
 74
     0
 42
0.0000000001
 43
0.0000000001
 12
1.0
 22
0.0
 32
0.0
 13
1.0
 23
0.0
 33
0.0
 40
0.0
 40
0.0
 40
0.0
 40
0.0
 40
1.0
 40
1.0
 40
1.0
 40
2.0
 40
2.0
 40
2.0
 40
3.0
 40
3.0
 40
3.0
 40
4.0
 40
4.0
 40
4.0
 40
5.0
 40
5.0
 40
5.0
 40
5.0
 10
608.7545461133419
 20
291.2735030697089
 30
0.0
 10
608.7545461133419
 20
293.482642069032
 30
0.0
 10
610.5454071140189
 20
295.2735030697087
 30
0.0
 10
612.754546113342
 20
295.2735030697087
 30
0.0
 10
614.9636851126652
 20
295.2735030697087
 30
0.0
 10
616.7545461133421
 20
293.482642069032
 30
0.0
 10
616.7545461133421
 20
291.2735030697089
 30
0.0
 10
616.7545461133421
 20
289.0643640703856
 30
0.0
 10
614.9636851126652
 20
287.2735030697087
 30
0.0
 10
612.754546113342
 20
287.2735030697087
 30
0.0
 10
610.5454071140189
 20
287.2735030697087
 30
0.0
 10
608.7545461133419
 20
289.0643640703856
 30
0.0
 10
608.7545461133419
 20
291.2735030697089
 30
0.0
 10
608.7545461133419
 20
291.2735030697089
 30
0.0
 10
608.7545461133419
 20
291.2735030697089
 30
0.0
 10
608.7545461133419
 20
291.2735030697089
 30
0.0
  0
ENDBLK
  5
17F
330
17C
100
AcDbEntity
  8
0
100
AcDbBlockEnd
  0
BLOCK
  5
183
330
181
100
AcDbEntity
  8
0
100
AcDbBlockBegin
  2
block 56
 70
     0
 10
0.0
 20
0.0
 30
0.0
  3
block 56
  1

  0
SPLINE
  5
185
330
181
100
AcDbEntity
  8
0
 62
     1
370
    25
100
AcDbSpline
210
0.0
220
0.0
230
1.0
 70
    11
 71
     3
 72
    20
 73
    16
 74
     0
 42
0.0000000001
 43
0.0000000001
 12
1.0
 22
0.0
 32
0.0
 13
1.0
 23
0.0
 33
0.0
 40
0.0
 40
0.0
 40
0.0
 40
0.0
 40
1.0
 40
1.0
 40
1.0
 40
2.0
 40
2.0
 40
2.0
 40
3.0
 40
3.0
 40
3.0
 40
4.0
 40
4.0
 40
4.0
 40
5.0
 40
5.0
 40
5.0
 40
5.0
 10
641.014925338772
 20
270.7663521767877
 30
0.0
 10
641.014925338772
 20
271.5947793015338
 30
0.0
 10
641.6864982140256
 20
272.2663521767877
 30
0.0
 10
642.5149253387717
 20
272.2663521767877
 30
0.0
 10
643.3433524635184
 20
272.2663521767877
 30
0.0
 10
644.0149253387721
 20
271.5947793015338
 30
0.0
 10
644.0149253387721
 20
270.7663521767877
 30
0.0
 10
644.0149253387721
 20
269.9379250520416
 30
0.0
 10
643.3433524635184
 20
269.2663521767876
 30
0.0
 10
642.5149253387717
 20
269.2663521767876
 30
0.0
 10
641.6864982140256
 20
269.2663521767876
 30
0.0
 10
641.014925338772
 20
269.9379250520416
 30
0.0
 10
641.014925338772
 20
270.7663521767877
 30
0.0
 10
641.014925338772
 20
270.7663521767877
 30
0.0
 10
641.014925338772
 20
270.7663521767877
 30
0.0
 10
641.014925338772
 20
270.7663521767877
 30
0.0
  0
ENDBLK
  5
184
330
181
100
AcDbEntity
  8
0
100
AcDbBlockEnd
  0
BLOCK
  5
188
330
186
100
AcDbEntity
  8
0
100
AcDbBlockBegin
  2
block 57
 70
     0
 10
0.0
 20
0.0
 30
0.0
  3
block 57
  1

  0
SPLINE
  5
18A
330
186
100
AcDbEntity
  8
0
 62
     1
370
    25
100
AcDbSpline
210
0.0
220
0.0
230
1.0
 70
    11
 71
     3
 72
    20
 73
    16
 74
     0
 42
0.0000000001
 43
0.0000000001
 12
1.0
 22
0.0
 32
0.0
 13
1.0
 23
0.0
 33
0.0
 40
0.0
 40
0.0
 40
0.0
 40
0.0
 40
1.0
 40
1.0
 40
1.0
 40
2.0
 40
2.0
 40
2.0
 40
3.0
 40
3.0
 40
3.0
 40
4.0
 40
4.0
 40
4.0
 40
5.0
 40
5.0
 40
5.0
 40
5.0
 10
606.8075979949184
 20
367.4915404216881
 30
0.0
 10
606.8075979949184
 20
368.3199675464342
 30
0.0
 10
607.4791708701721
 20
368.9915404216878
 30
0.0
 10
608.3075979949182
 20
368.9915404216878
 30
0.0
 10
609.1360251196643
 20
368.9915404216878
 30
0.0
 10
609.8075979949178
 20
368.3199675464342
 30
0.0
 10
609.8075979949178
 20
367.4915404216881
 30
0.0
 10
609.8075979949178
 20
366.6631132969417
 30
0.0
 10
609.1360251196643
 20
365.991540421688
 30
0.0
 10
608.3075979949182
 20
365.991540421688
 30
0.0
 10
607.4791708701721
 20
365.991540421688
 30
0.0
 10
606.8075979949184
 20
366.6631132969417
 30
0.0
 10
606.8075979949184
 20
367.4915404216881
 30
0.0
 10
606.8075979949184
 20
367.4915404216881
 30
0.0
 10
606.8075979949184
 20
367.4915404216881
 30
0.0
 10
606.8075979949184
 20
367.4915404216881
 30
0.0
  0
ENDBLK
  5
189
330
186
100
AcDbEntity
  8
0
100
AcDbBlockEnd
  0
BLOCK
  5
18D
330
18B
100
AcDbEntity
  8
0
100
AcDbBlockBegin
  2
block 58
 70
     0
 10
0.0
 20
0.0
 30
0.0
  3
block 58
  1

  0
SPLINE
  5
18F
330
18B
100
AcDbEntity
  8
0
 62
     1
370
    25
100
AcDbSpline
210
0.0
220
0.0
230
1.0
 70
    11
 71
     3
 72
    20
 73
    16
 74
     0
 42
0.0000000001
 43
0.0000000001
 12
1.0
 22
0.0
 32
0.0
 13
1.0
 23
0.0
 33
0.0
 40
0.0
 40
0.0
 40
0.0
 40
0.0
 40
1.0
 40
1.0
 40
1.0
 40
2.0
 40
2.0
 40
2.0
 40
3.0
 40
3.0
 40
3.0
 40
4.0
 40
4.0
 40
4.0
 40
5.0
 40
5.0
 40
5.0
 40
5.0
 10
570.2057366646959
 20
363.3901102431057
 30
0.0
 10
570.2057366646959
 20
364.2185373678518
 30
0.0
 10
570.8773095399496
 20
364.8901102431054
 30
0.0
 10
571.7057366646957
 20
364.8901102431054
 30
0.0
 10
572.5341637894423
 20
364.8901102431054
 30
0.0
 10
573.205736664696
 20
364.2185373678518
 30
0.0
 10
573.205736664696
 20
363.3901102431057
 30
0.0
 10
573.205736664696
 20
362.5616831183592
 30
0.0
 10
572.5341637894423
 20
361.8901102431056
 30
0.0
 10
571.7057366646957
 20
361.8901102431056
 30
0.0
 10
570.8773095399496
 20
361.8901102431056
 30
0.0
 10
570.2057366646959
 20
362.5616831183592
 30
0.0
 10
570.2057366646959
 20
363.3901102431057
 30
0.0
 10
570.2057366646959
 20
363.3901102431057
 30
0.0
 10
570.2057366646959
 20
363.3901102431057
 30
0.0
 10
570.2057366646959
 20
363.3901102431057
 30
0.0
  0
ENDBLK
  5
18E
330
18B
100
AcDbEntity
  8
0
100
AcDbBlockEnd
  0
BLOCK
  5
192
330
190
100
AcDbEntity
  8
0
100
AcDbBlockBegin
  2
block 59
 70
     0
 10
0.0
 20
0.0
 30
0.0
  3
block 59
  1

  0
SPLINE
  5
194
330
190
100
AcDbEntity
  8
0
 62
     1
370
    25
100
AcDbSpline
210
0.0
220
0.0
230
1.0
 70
    11
 71
     3
 72
    20
 73
    16
 74
     0
 42
0.0000000001
 43
0.0000000001
 12
1.0
 22
0.0
 32
0.0
 13
1.0
 23
0.0
 33
0.0
 40
0.0
 40
0.0
 40
0.0
 40
0.0
 40
1.0
 40
1.0
 40
1.0
 40
2.0
 40
2.0
 40
2.0
 40
3.0
 40
3.0
 40
3.0
 40
4.0
 40
4.0
 40
4.0
 40
5.0
 40
5.0
 40
5.0
 40
5.0
 10
541.4715506419429
 20
501.4715773145568
 30
0.0
 10
541.4715506419429
 20
502.3000044393032
 30
0.0
 10
542.1431235171966
 20
502.9715773145568
 30
0.0
 10
542.9715506419427
 20
502.9715773145568
 30
0.0
 10
543.7999777666895
 20
502.9715773145568
 30
0.0
 10
544.471550641943
 20
502.3000044393032
 30
0.0
 10
544.471550641943
 20
501.4715773145568
 30
0.0
 10
544.471550641943
 20
500.6431501898107
 30
0.0
 10
543.7999777666895
 20
499.9715773145571
 30
0.0
 10
542.9715506419427
 20
499.9715773145571
 30
0.0
 10
542.1431235171966
 20
499.9715773145571
 30
0.0
 10
541.4715506419429
 20
500.6431501898107
 30
0.0
 10
541.4715506419429
 20
501.4715773145568
 30
0.0
 10
541.4715506419429
 20
501.4715773145568
 30
0.0
 10
541.4715506419429
 20
501.4715773145568
 30
0.0
 10
541.4715506419429
 20
501.4715773145568
 30
0.0
  0
ENDBLK
  5
193
330
190
100
AcDbEntity
  8
0
100
AcDbBlockEnd
  0
BLOCK
  5
197
330
195
100
AcDbEntity
  8
0
100
AcDbBlockBegin
  2
block 60
 70
     0
 10
0.0
 20
0.0
 30
0.0
  3
block 60
  1

  0
POLYLINE
  5
199
330
195
100
AcDbEntity
  8
0
 62
     1
370
    25
100
AcDb2dPolyline
 66
     1
 10
0.0
 20
0.0
 30
0.0
  0
VERTEX
  5
19A
330
199
100
AcDbEntity
  8
0
 62
     1
370
    25
100
AcDbVertex
100
AcDb2dVertex
 10
534.3229847982119
 20
510.4537650611013
 30
0.0
  0
VERTEX
  5
19B
330
199
100
AcDbEntity
  8
0
 62
     1
370
    25
100
AcDbVertex
100
AcDb2dVertex
 10
534.6403773953361
 20
491.8890716670711
 30
0.0
  0
SEQEND
  5
19C
330
199
100
AcDbEntity
  8
0
 62
     1
370
    25
  0
ENDBLK
  5
198
330
195
100
AcDbEntity
  8
0
100
AcDbBlockEnd
  0
BLOCK
  5
19F
330
19D
100
AcDbEntity
  8
0
100
AcDbBlockBegin
  2
block 61
 70
     0
 10
0.0
 20
0.0
 30
0.0
  3
block 61
  1

  0
SPLINE
  5
1A1
330
19D
100
AcDbEntity
  8
0
 62
     1
370
    25
100
AcDbSpline
210
0.0
220
0.0
230
1.0
 70
    11
 71
     3
 72
    20
 73
    16
 74
     0
 42
0.0000000001
 43
0.0000000001
 12
1.0
 22
0.0
 32
0.0
 13
1.0
 23
0.0
 33
0.0
 40
0.0
 40
0.0
 40
0.0
 40
0.0
 40
1.0
 40
1.0
 40
1.0
 40
2.0
 40
2.0
 40
2.0
 40
3.0
 40
3.0
 40
3.0
 40
4.0
 40
4.0
 40
4.0
 40
5.0
 40
5.0
 40
5.0
 40
5.0
 10
597.8527142773796
 20
484.58745395991
 30
0.0
 10
597.8527142773796
 20
488.0944621213354
 30
0.0
 10
600.6957061159542
 20
490.93745395991
 30
0.0
 10
604.2027142773796
 20
490.93745395991
 30
0.0
 10
607.7097224388051
 20
490.93745395991
 30
0.0
 10
610.5527142773797
 20
488.0944621213354
 30
0.0
 10
610.5527142773797
 20
484.58745395991
 30
0.0
 10
610.5527142773797
 20
481.0804457984846
 30
0.0
 10
607.7097224388051
 20
478.2374539599099
 30
0.0
 10
604.2027142773796
 20
478.2374539599099
 30
0.0
 10
600.6957061159542
 20
478.2374539599099
 30
0.0
 10
597.8527142773796
 20
481.0804457984846
 30
0.0
 10
597.8527142773796
 20
484.58745395991
 30
0.0
 10
597.8527142773796
 20
484.58745395991
 30
0.0
 10
597.8527142773796
 20
484.58745395991
 30
0.0
 10
597.8527142773796
 20
484.58745395991
 30
0.0
  0
ENDBLK
  5
1A0
330
19D
100
AcDbEntity
  8
0
100
AcDbBlockEnd
  0
BLOCK
  5
1A4
330
1A2
100
AcDbEntity
  8
0
100
AcDbBlockBegin
  2
block 62
 70
     0
 10
0.0
 20
0.0
 30
0.0
  3
block 62
  1

  0
SPLINE
  5
1A6
330
1A2
100
AcDbEntity
  8
0
 62
     1
370
    25
100
AcDbSpline
210
0.0
220
0.0
230
1.0
 70
    11
 71
     3
 72
    20
 73
    16
 74
     0
 42
0.0000000001
 43
0.0000000001
 12
1.0
 22
0.0
 32
0.0
 13
1.0
 23
0.0
 33
0.0
 40
0.0
 40
0.0
 40
0.0
 40
0.0
 40
1.0
 40
1.0
 40
1.0
 40
2.0
 40
2.0
 40
2.0
 40
3.0
 40
3.0
 40
3.0
 40
4.0
 40
4.0
 40
4.0
 40
5.0
 40
5.0
 40
5.0
 40
5.0
 10
621.5167554071854
 20
517.1937341362373
 30
0.0
 10
621.5167554071854
 20
518.0221612609837
 30
0.0
 10
622.188328282439
 20
518.6937341362374
 30
0.0
 10
623.0167554071851
 20
518.6937341362374
 30
0.0
 10
623.8451825319312
 20
518.6937341362374
 30
0.0
 10
624.5167554071849
 20
518.0221612609837
 30
0.0
 10
624.5167554071849
 20
517.1937341362373
 30
0.0
 10
624.5167554071849
 20
516.3653070114912
 30
0.0
 10
623.8451825319312
 20
515.6937341362376
 30
0.0
 10
623.0167554071851
 20
515.6937341362376
 30
0.0
 10
622.188328282439
 20
515.6937341362376
 30
0.0
 10
621.5167554071854
 20
516.3653070114912
 30
0.0
 10
621.5167554071854
 20
517.1937341362373
 30
0.0
 10
621.5167554071854
 20
517.1937341362373
 30
0.0
 10
621.5167554071854
 20
517.1937341362373
 30
0.0
 10
621.5167554071854
 20
517.1937341362373
 30
0.0
  0
ENDBLK
  5
1A5
330
1A2
100
AcDbEntity
  8
0
100
AcDbBlockEnd
  0
BLOCK
  5
1A9
330
1A7
100
AcDbEntity
  8
0
100
AcDbBlockBegin
  2
block 63
 70
     0
 10
0.0
 20
0.0
 30
0.0
  3
block 63
  1

  0
SPLINE
  5
1AB
330
1A7
100
AcDbEntity
  8
0
 62
     1
370
    25
100
AcDbSpline
210
0.0
220
0.0
230
1.0
 70
    11
 71
     3
 72
    20
 73
    16
 74
     0
 42
0.0000000001
 43
0.0000000001
 12
1.0
 22
0.0
 32
0.0
 13
1.0
 23
0.0
 33
0.0
 40
0.0
 40
0.0
 40
0.0
 40
0.0
 40
1.0
 40
1.0
 40
1.0
 40
2.0
 40
2.0
 40
2.0
 40
3.0
 40
3.0
 40
3.0
 40
4.0
 40
4.0
 40
4.0
 40
5.0
 40
5.0
 40
5.0
 40
5.0
 10
-187.0282258318956
 20
305.2212573025968
 30
0.0
 10
-187.0282258318956
 20
306.325826802258
 30
0.0
 10
-186.1327953315571
 20
307.2212573025965
 30
0.0
 10
-185.0282258318956
 20
307.2212573025965
 30
0.0
 10
-183.923656332234
 20
307.2212573025965
 30
0.0
 10
-183.0282258318955
 20
306.325826802258
 30
0.0
 10
-183.0282258318955
 20
305.2212573025968
 30
0.0
 10
-183.0282258318955
 20
304.1166878029348
 30
0.0
 10
-183.923656332234
 20
303.2212573025967
 30
0.0
 10
-185.0282258318956
 20
303.2212573025967
 30
0.0
 10
-186.1327953315571
 20
303.2212573025967
 30
0.0
 10
-187.0282258318956
 20
304.1166878029348
 30
0.0
 10
-187.0282258318956
 20
305.2212573025968
 30
0.0
 10
-187.0282258318956
 20
305.2212573025968
 30
0.0
 10
-187.0282258318956
 20
305.2212573025968
 30
0.0
 10
-187.0282258318956
 20
305.2212573025968
 30
0.0
  0
ENDBLK
  5
1AA
330
1A7
100
AcDbEntity
  8
0
100
AcDbBlockEnd
  0
BLOCK
  5
1AE
330
1AC
100
AcDbEntity
  8
0
100
AcDbBlockBegin
  2
block 64
 70
     0
 10
0.0
 20
0.0
 30
0.0
  3
block 64
  1

  0
SPLINE
  5
1B0
330
1AC
100
AcDbEntity
  8
0
 62
     1
370
    25
100
AcDbSpline
210
0.0
220
0.0
230
1.0
 70
    11
 71
     3
 72
    20
 73
    16
 74
     0
 42
0.0000000001
 43
0.0000000001
 12
1.0
 22
0.0
 32
0.0
 13
1.0
 23
0.0
 33
0.0
 40
0.0
 40
0.0
 40
0.0
 40
0.0
 40
1.0
 40
1.0
 40
1.0
 40
2.0
 40
2.0
 40
2.0
 40
3.0
 40
3.0
 40
3.0
 40
4.0
 40
4.0
 40
4.0
 40
5.0
 40
5.0
 40
5.0
 40
5.0
 10
-195.0667016048303
 20
335.2212573025965
 30
0.0
 10
-195.0667016048303
 20
336.3258268022581
 30
0.0
 10
-194.1712711044918
 20
337.2212573025966
 30
0.0
 10
-193.0667016048302
 20
337.2212573025966
 30
0.0
 10
-191.9621321051686
 20
337.2212573025966
 30
0.0
 10
-191.0667016048301
 20
336.3258268022581
 30
0.0
 10
-191.0667016048301
 20
335.2212573025965
 30
0.0
 10
-191.0667016048301
 20
334.116687802935
 30
0.0
 10
-191.9621321051686
 20
333.2212573025965
 30
0.0
 10
-193.0667016048302
 20
333.2212573025965
 30
0.0
 10
-194.1712711044918
 20
333.2212573025965
 30
0.0
 10
-195.0667016048303
 20
334.116687802935
 30
0.0
 10
-195.0667016048303
 20
335.2212573025965
 30
0.0
 10
-195.0667016048303
 20
335.2212573025965
 30
0.0
 10
-195.0667016048303
 20
335.2212573025965
 30
0.0
 10
-195.0667016048303
 20
335.2212573025965
 30
0.0
  0
ENDBLK
  5
1AF
330
1AC
100
AcDbEntity
  8
0
100
AcDbBlockEnd
  0
BLOCK
  5
1B3
330
1B1
100
AcDbEntity
  8
0
100
AcDbBlockBegin
  2
block 65
 70
     0
 10
0.0
 20
0.0
 30
0.0
  3
block 65
  1

  0
SPLINE
  5
1B5
330
1B1
100
AcDbEntity
  8
0
 62
     1
370
    25
100
AcDbSpline
210
0.0
220
0.0
230
1.0
 70
    11
 71
     3
 72
    20
 73
    16
 74
     0
 42
0.0000000001
 43
0.0000000001
 12
1.0
 22
0.0
 32
0.0
 13
1.0
 23
0.0
 33
0.0
 40
0.0
 40
0.0
 40
0.0
 40
0.0
 40
1.0
 40
1.0
 40
1.0
 40
2.0
 40
2.0
 40
2.0
 40
3.0
 40
3.0
 40
3.0
 40
4.0
 40
4.0
 40
4.0
 40
5.0
 40
5.0
 40
5.0
 40
5.0
 10
-244.9991222998201
 20
335.2212573025965
 30
0.0
 10
-244.9991222998201
 20
336.3258268022581
 30
0.0
 10
-244.1036917994819
 20
337.2212573025966
 30
0.0
 10
-242.99912229982
 20
337.2212573025966
 30
0.0
 10
-241.8945528001587
 20
337.2212573025966
 30
0.0
 10
-240.9991222998203
 20
336.3258268022581
 30
0.0
 10
-240.9991222998203
 20
335.2212573025965
 30
0.0
 10
-240.9991222998203
 20
334.116687802935
 30
0.0
 10
-241.8945528001587
 20
333.2212573025965
 30
0.0
 10
-242.99912229982
 20
333.2212573025965
 30
0.0
 10
-244.1036917994819
 20
333.2212573025965
 30
0.0
 10
-244.9991222998201
 20
334.116687802935
 30
0.0
 10
-244.9991222998201
 20
335.2212573025965
 30
0.0
 10
-244.9991222998201
 20
335.2212573025965
 30
0.0
 10
-244.9991222998201
 20
335.2212573025965
 30
0.0
 10
-244.9991222998201
 20
335.2212573025965
 30
0.0
  0
ENDBLK
  5
1B4
330
1B1
100
AcDbEntity
  8
0
100
AcDbBlockEnd
  0
BLOCK
  5
1B8
330
1B6
100
AcDbEntity
  8
0
100
AcDbBlockBegin
  2
block 66
 70
     0
 10
0.0
 20
0.0
 30
0.0
  3
block 66
  1

  0
SPLINE
  5
1BA
330
1B6
100
AcDbEntity
  8
0
 62
     1
370
    25
100
AcDbSpline
210
0.0
220
0.0
230
1.0
 70
    11
 71
     3
 72
    20
 73
    16
 74
     0
 42
0.0000000001
 43
0.0000000001
 12
1.0
 22
0.0
 32
0.0
 13
1.0
 23
0.0
 33
0.0
 40
0.0
 40
0.0
 40
0.0
 40
0.0
 40
1.0
 40
1.0
 40
1.0
 40
2.0
 40
2.0
 40
2.0
 40
3.0
 40
3.0
 40
3.0
 40
4.0
 40
4.0
 40
4.0
 40
5.0
 40
5.0
 40
5.0
 40
5.0
 10
-236.9606465268855
 20
305.2212573025968
 30
0.0
 10
-236.9606465268855
 20
306.325826802258
 30
0.0
 10
-236.065216026547
 20
307.2212573025965
 30
0.0
 10
-234.9606465268857
 20
307.2212573025965
 30
0.0
 10
-233.8560770272238
 20
307.2212573025965
 30
0.0
 10
-232.9606465268857
 20
306.325826802258
 30
0.0
 10
-232.9606465268857
 20
305.2212573025968
 30
0.0
 10
-232.9606465268857
 20
304.1166878029348
 30
0.0
 10
-233.8560770272238
 20
303.2212573025967
 30
0.0
 10
-234.9606465268857
 20
303.2212573025967
 30
0.0
 10
-236.065216026547
 20
303.2212573025967
 30
0.0
 10
-236.9606465268855
 20
304.1166878029348
 30
0.0
 10
-236.9606465268855
 20
305.2212573025968
 30
0.0
 10
-236.9606465268855
 20
305.2212573025968
 30
0.0
 10
-236.9606465268855
 20
305.2212573025968
 30
0.0
 10
-236.9606465268855
 20
305.2212573025968
 30
0.0
  0
ENDBLK
  5
1B9
330
1B6
100
AcDbEntity
  8
0
100
AcDbBlockEnd
  0
BLOCK
  5
1BD
330
1BB
100
AcDbEntity
  8
0
100
AcDbBlockBegin
  2
block 67
 70
     0
 10
0.0
 20
0.0
 30
0.0
  3
block 67
  1

  0
POLYLINE
  5
1BF
330
1BB
100
AcDbEntity
  8
0
 62
     3
370
    25
100
AcDb2dPolyline
 66
     1
 10
0.0
 20
0.0
 30
0.0
  0
VERTEX
  5
1C0
330
1BF
100
AcDbEntity
  8
0
 62
     3
370
    25
100
AcDbVertex
100
AcDb2dVertex
 10
-255.675682317926
 20
320.2249639725561
 30
0.0
  0
VERTEX
  5
1C1
330
1BF
100
AcDbEntity
  8
0
 62
     3
370
    25
100
AcDbVertex
100
AcDb2dVertex
 10
252.8223994720051
 20
320.2212899221641
 30
0.0
  0
SEQEND
  5
1C2
330
1BF
100
AcDbEntity
  8
0
 62
     3
370
    25
  0
ENDBLK
  5
1BE
330
1BB
100
AcDbEntity
  8
0
100
AcDbBlockEnd
  0
BLOCK
  5
1C5
330
1C3
100
AcDbEntity
  8
0
100
AcDbBlockBegin
  2
block 68
 70
     0
 10
0.0
 20
0.0
 30
0.0
  3
block 68
  1

  0
POLYLINE
  5
1C7
330
1C3
100
AcDbEntity
  8
0
 62
     3
370
    25
100
AcDb2dPolyline
 66
     1
 10
0.0
 20
0.0
 30
0.0
  0
VERTEX
  5
1C8
330
1C7
100
AcDbEntity
  8
0
 62
     3
370
    25
100
AcDbVertex
100
AcDb2dVertex
 10
252.8223994720051
 20
435.2207604038941
 30
0.0
  0
VERTEX
  5
1C9
330
1C7
100
AcDbEntity
  8
0
 62
     3
370
    25
100
AcDbVertex
100
AcDb2dVertex
 10
-213.39365051809
 20
435.2207604038941
 30
0.0
  0
SEQEND
  5
1CA
330
1C7
100
AcDbEntity
  8
0
 62
     3
370
    25
  0
ENDBLK
  5
1C6
330
1C3
100
AcDbEntity
  8
0
100
AcDbBlockEnd
  0
BLOCK
  5
1CD
330
1CB
100
AcDbEntity
  8
0
100
AcDbBlockBegin
  2
block 69
 70
     0
 10
0.0
 20
0.0
 30
0.0
  3
block 69
  1

  0
SPLINE
  5
1CF
330
1CB
100
AcDbEntity
  8
0
 62
     1
370
    25
100
AcDbSpline
210
0.0
220
0.0
230
1.0
 70
    11
 71
     3
 72
   191
 73
   187
 74
     0
 42
0.0000000001
 43
0.0000000001
 12
1.0
 22
0.0
 32
0.0
 13
1.0
 23
0.0
 33
0.0
 40
0.0
 40
0.0
 40
0.0
 40
0.0
 40
1.0
 40
1.0
 40
1.0
 40
2.0
 40
2.0
 40
2.0
 40
3.0
 40
3.0
 40
3.0
 40
4.0
 40
4.0
 40
4.0
 40
5.0
 40
5.0
 40
5.0
 40
6.0
 40
6.0
 40
6.0
 40
7.0
 40
7.0
 40
7.0
 40
8.0
 40
8.0
 40
8.0
 40
9.0
 40
9.0
 40
9.0
 40
10.0
 40
10.0
 40
10.0
 40
11.0
 40
11.0
 40
11.0
 40
12.0
 40
12.0
 40
12.0
 40
13.0
 40
13.0
 40
13.0
 40
14.0
 40
14.0
 40
14.0
 40
15.0
 40
15.0
 40
15.0
 40
16.0
 40
16.0
 40
16.0
 40
17.0
 40
17.0
 40
17.0
 40
18.0
 40
18.0
 40
18.0
 40
19.0
 40
19.0
 40
19.0
 40
20.0
 40
20.0
 40
20.0
 40
21.0
 40
21.0
 40
21.0
 40
22.0
 40
22.0
 40
22.0
 40
23.0
 40
23.0
 40
23.0
 40
24.0
 40
24.0
 40
24.0
 40
25.0
 40
25.0
 40
25.0
 40
26.0
 40
26.0
 40
26.0
 40
27.0
 40
27.0
 40
27.0
 40
28.0
 40
28.0
 40
28.0
 40
29.0
 40
29.0
 40
29.0
 40
30.0
 40
30.0
 40
30.0
 40
31.0
 40
31.0
 40
31.0
 40
32.0
 40
32.0
 40
32.0
 40
33.0
 40
33.0
 40
33.0
 40
34.0
 40
34.0
 40
34.0
 40
35.0
 40
35.0
 40
35.0
 40
36.0
 40
36.0
 40
36.0
 40
37.0
 40
37.0
 40
37.0
 40
38.0
 40
38.0
 40
38.0
 40
39.0
 40
39.0
 40
39.0
 40
40.0
 40
40.0
 40
40.0
 40
41.0
 40
41.0
 40
41.0
 40
42.0
 40
42.0
 40
42.0
 40
43.0
 40
43.0
 40
43.0
 40
44.0
 40
44.0
 40
44.0
 40
45.0
 40
45.0
 40
45.0
 40
46.0
 40
46.0
 40
46.0
 40
47.0
 40
47.0
 40
47.0
 40
48.0
 40
48.0
 40
48.0
 40
49.0
 40
49.0
 40
49.0
 40
50.0
 40
50.0
 40
50.0
 40
51.0
 40
51.0
 40
51.0
 40
52.0
 40
52.0
 40
52.0
 40
53.0
 40
53.0
 40
53.0
 40
54.0
 40
54.0
 40
54.0
 40
55.0
 40
55.0
 40
55.0
 40
56.0
 40
56.0
 40
56.0
 40
57.0
 40
57.0
 40
57.0
 40
58.0
 40
58.0
 40
58.0
 40
59.0
 40
59.0
 40
59.0
 40
60.0
 40
60.0
 40
60.0
 40
61.0
 40
61.0
 40
61.0
 40
62.0
 40
62.0
 40
62.0
 40
62.0
 10
597.2808417075745
 20
126.8896080129719
 30
0.0
 10
604.4415254868621
 20
130.7210735254835
 30
0.0
 10
613.1339443051922
 20
132.5684705803682
 30
0.0
 10
621.1631452417145
 20
131.7099046166951
 30
0.0
 10
631.8257185642099
 20
130.5697509934107
 30
0.0
 10
641.318696530195
 20
124.657588248826
 30
0.0
 10
651.5585554050534
 20
120.6220019212135
 30
0.0
 10
657.8025381825538
 20
118.161212975323
 30
0.0
 10
664.3242279486055
 20
116.3981770170251
 30
0.0
 10
670.8572556362294
 20
116.5241791445592
 30
0.0
 10
681.9359518124127
 20
116.7378533175831
 30
0.0
 10
693.0472528047505
 20
122.383893476096
 30
0.0
 10
701.2530280370526
 20
130.5035790369963
 30
0.0
 10
706.8027598867245
 20
135.995086699704
 30
0.0
 10
711.0234779211454
 20
142.6180621879675
 30
0.0
 10
712.8809195835163
 20
149.9144592324426
 30
0.0
 10
714.0524874711703
 20
154.5166088697947
 30
0.0
 10
714.2838579143154
 20
159.3866701376757
 30
0.0
 10
714.0872923501875
 20
164.1353239402771
 30
0.0
 10
713.9510222643864
 20
167.4273525516655
 30
0.0
 10
713.6090849883769
 20
170.6610324103667
 30
0.0
 10
713.6049627037859
 20
174.017657355903
 30
0.0
 10
713.6012835706896
 20
177.0134403147214
 30
0.0
 10
713.8666922171461
 20
180.1071556367088
 30
0.0
 10
715.2434870165115
 20
182.694776283279
 30
0.0
 10
716.7419127954911
 20
185.5109965979028
 30
0.0
 10
719.556766298259
 20
187.7277519472345
 30
0.0
 10
722.6251743323454
 20
188.8489609202131
 30
0.0
 10
727.6078513349185
 20
190.6696516832006
 30
0.0
 10
733.2591348840447
 20
189.6014590353058
 30
0.0
 10
738.1627846593179
 20
187.3865742315406
 30
0.0
 10
744.8704671294439
 20
184.356842368046
 30
0.0
 10
750.1792227233158
 20
179.1814898387414
 30
0.0
 10
754.0840591655012
 20
173.1654620189803
 30
0.0
 10
759.0617953680519
 20
165.4964597656582
 30
0.0
 10
761.7581382929434
 20
156.4613454010809
 30
0.0
 10
762.7681351599127
 20
147.374936117402
 30
0.0
 10
764.1328503280104
 20
135.0973133063655
 30
0.0
 10
762.4187002199992
 20
122.7260382200331
 30
0.0
 10
759.6315486614242
 20
110.7381293638322
 30
0.0
 10
757.2724081199713
 20
100.5911527120284
 30
0.0
 10
754.1445146795777
 20
90.71883915654627
 30
0.0
 10
750.9466680817059
 20
80.850310555123
 30
0.0
 10
749.0199440290894
 20
74.90445579368644
 30
0.0
 10
747.0678259769652
 20
68.95997502486136
 30
0.0
 10
745.156796366137
 20
63.01403859741367
 30
0.0
 10
743.0883982181521
 20
56.57846908824078
 30
0.0
 10
741.0681341987979
 20
50.14119430972323
 30
0.0
 10
739.6080949048537
 20
43.49052450681303
 30
0.0
 10
737.4209541900292
 20
33.52781270369199
 30
0.0
 10
736.49096212952
 20
23.08624080107034
 30
0.0
 10
738.1602664112014
 20
13.1205463111865
 30
0.0
 10
739.5162789524151
 20
5.025193739174718
 30
0.0
 10
742.5874813251579
 20
-2.756143040896432
 30
0.0
 10
746.1206546947255
 20
-10.25966388159422
 30
0.0
 10
750.1845104253846
 20
-18.89021296000535
 30
0.0
 10
754.8595352405587
 20
-27.15322270262128
 30
0.0
 10
760.3531674382239
 20
-34.84510172830561
 30
0.0
 10
765.0282293027423
 20
-41.39086398642506
 30
0.0
 10
770.2961225991711
 20
-47.52301619414927
 30
0.0
 10
775.5506809517282
 20
-53.64581779575129
 30
0.0
 10
780.7979737985162
 20
-59.76015336702789
 30
0.0
 10
786.0319685525328
 20
-65.86516417257097
 30
0.0
 10
790.9894203110566
 20
-72.20549433790455
 30
0.0
 10
798.655415751809
 20
-82.0099149370052
 30
0.0
 10
805.660135159624
 20
-92.37703665401993
 30
0.0
 10
811.282228532318
 20
-103.5399119206519
 30
0.0
 10
816.7580986416154
 20
-114.4124554652395
 30
0.0
 10
820.9223280098562
 20
-126.0398978393043
 30
0.0
 10
822.860986121178
 20
-138.0076534722422
 30
0.0
 10
824.5575429678036
 20
-148.4808656591826
 30
0.0
 10
824.5496827135419
 20
-159.214701151837
 30
0.0
 10
823.3429988100909
 20
-169.8238551919154
 30
0.0
 10
822.3186863612904
 20
-178.8296010408653
 30
0.0
 10
820.4305342023179
 20
-187.7455048267808
 30
0.0
 10
817.0705050089946
 20
-196.0962353768818
 30
0.0
 10
813.938179166387
 20
-203.8810514013111
 30
0.0
 10
809.5267097460015
 20
-211.1747002303492
 30
0.0
 10
804.2847686017296
 20
-217.7889227354926
 30
0.0
 10
797.1055994135769
 20
-226.8475178447488
 30
0.0
 10
788.3687118403553
 20
-234.6317108935981
 30
0.0
 10
778.7135606372722
 20
-240.9276053655432
 30
0.0
 10
765.4304631597364
 20
-249.5891973199418
 30
0.0
 10
750.4093729980615
 20
-255.4338944803419
 30
0.0
 10
735.0497989473492
 20
-259.4864278412809
 30
0.0
 10
723.5390191481074
 20
-262.5234794543555
 30
0.0
 10
711.838136270295
 20
-264.5539961432711
 30
0.0
 10
700.0506726174318
 20
-265.7527594369682
 30
0.0
 10
686.0469330378672
 20
-267.1769139011388
 30
0.0
 10
671.9209941387364
 20
-267.4271391774193
 30
0.0
 10
657.8345755802742
 20
-267.1983294183076
 30
0.0
 10
646.1562578501729
 20
-267.0086351354372
 30
0.0
 10
634.5051032665681
 20
-266.4896901775149
 30
0.0
 10
622.8555828747031
 20
-265.5106009106966
 30
0.0
 10
603.8685545050961
 20
-263.914827431607
 30
0.0
 10
584.8858672467608
 20
-261.096714127421
 30
0.0
 10
566.6407394912435
 20
-255.6274777345338
 30
0.0
 10
550.8348837084968
 20
-250.8894477888904
 30
0.0
 10
535.5825555192399
 20
-244.1617888333516
 30
0.0
 10
521.530148944016
 20
-235.3801493761346
 30
0.0
 10
508.6551798324085
 20
-227.3343149380474
 30
0.0
 10
496.787475978357
 20
-217.5642818732817
 30
0.0
 10
487.2752273607474
 20
-205.7327218577016
 30
0.0
 10
480.675609338219
 20
-197.5239607274572
 30
0.0
 10
475.2098164223565
 20
-188.3228602061933
 30
0.0
 10
471.5880434507694
 20
-178.495914727895
 30
0.0
 10
466.8389880696035
 20
-165.6103173505204
 30
0.0
 10
465.2605048016056
 20
-151.6486542971191
 30
0.0
 10
465.3165456656035
 20
-137.7614281229744
 30
0.0
 10
465.3708219896814
 20
-124.3114643892367
 30
0.0
 10
466.9583115014125
 20
-110.9313237940439
 30
0.0
 10
470.8655084937444
 20
-98.23226495630757
 30
0.0
 10
473.3939138032127
 20
-90.01451503133651
 30
0.0
 10
476.8937144049257
 20
-82.08197331402148
 30
0.0
 10
480.7564692633496
 20
-74.37027352653013
 30
0.0
 10
484.5142468505849
 20
-66.86815297188807
 30
0.0
 10
488.6155189024755
 20
-59.5750339072567
 30
0.0
 10
492.5772954596969
 20
-52.19550180964465
 30
0.0
 10
497.4222373175387
 20
-43.17091310944971
 30
0.0
 10
502.0585584914367
 20
-34.01709051474966
 30
0.0
 10
505.8456191214652
 20
-24.47705829700691
 30
0.0
 10
508.6937872646107
 20
-17.30220198979526
 30
0.0
 10
511.0615944740899
 20
-9.90889680201919
 30
0.0
 10
512.3592760734346
 20
-2.302209888361041
 30
0.0
 10
513.9832974400076
 20
7.217399608184165
 30
0.0
 10
513.9312882116834
 20
17.07120753674907
 30
0.0
 10
512.35969404011
 20
26.62162480162407
 30
0.0
 10
510.8391927660005
 20
35.86155574701701
 30
0.0
 10
507.8963046061932
 20
44.81750197461386
 30
0.0
 10
504.1581044298009
 20
53.37626895293154
 30
0.0
 10
500.9176517861552
 20
60.79542196040892
 30
0.0
 10
497.0795809700497
 20
67.91612413080117
 30
0.0
 10
493.3028293266843
 20
75.06929793826633
 30
0.0
 10
489.3246336618263
 20
82.60400705286342
 30
0.0
 10
485.4144728910516
 20
90.17474412234236
 30
0.0
 10
481.9651546400178
 20
97.96747091255305
 30
0.0
 10
477.7664582074019
 20
107.453198755905
 30
0.0
 10
474.2505954988117
 20
117.2678503882069
 30
0.0
 10
471.833713535837
 20
127.3735068211459
 30
0.0
 10
469.6824371862447
 20
136.3685922305042
 30
0.0
 10
468.4018669783572
 20
145.5942364264393
 30
0.0
 10
468.4568311671849
 20
154.8511790708998
 30
0.0
 10
468.5111948241238
 20
164.0069815115843
 30
0.0
 10
469.8720685415155
 20
173.1934022111283
 30
0.0
 10
473.040667972638
 20
181.8466970838624
 30
0.0
 10
475.6579090208068
 20
188.9942583440122
 30
0.0
 10
479.5084971261907
 20
195.7780867852798
 30
0.0
 10
484.8614523722059
 20
201.1290775279703
 30
0.0
 10
487.2702302686336
 20
203.5369714169727
 30
0.0
 10
489.9832243852567
 20
205.6547281903354
 30
0.0
 10
493.063515677698
 20
207.1547533460655
 30
0.0
 10
494.9588739653493
 20
208.0777456350008
 30
0.0
 10
496.9932968718795
 20
208.7668547970537
 30
0.0
 10
499.0944041179761
 20
208.8418892364134
 30
0.0
 10
501.5432609835336
 20
208.9293424600988
 30
0.0
 10
504.082702416869
 20
208.1826314152243
 30
0.0
 10
506.0901830013262
 20
206.7602559451066
 30
0.0
 10
508.2026454382525
 20
205.2634968854712
 30
0.0
 10
509.7260540866689
 20
203.0185574093821
 30
0.0
 10
510.7394200189747
 20
200.6466331611454
 30
0.0
 10
513.0970791405686
 20
195.128203281762
 30
0.0
 10
512.6939317100366
 20
188.9224184419188
 30
0.0
 10
513.0245933046003
 20
182.923929912636
 30
0.0
 10
513.2243063672187
 20
179.3009614912585
 30
0.0
 10
513.6917071695848
 20
175.753613127599
 30
0.0
 10
514.0378214948546
 20
172.1788190367327
 30
0.0
 10
514.2000892574695
 20
170.5028588219085
 30
0.0
 10
514.3356983961315
 20
168.8208660687648
 30
0.0
 10
514.5328368306707
 20
167.14314494187
 30
0.0
 10
515.3120314289868
 20
160.5119101823266
 30
0.0
 10
517.0524646322558
 20
153.9474087080882
 30
0.0
 10
519.8396997039631
 20
147.8605169930329
 30
0.0
 10
522.402596939334
 20
142.2635445285033
 30
0.0
 10
525.8505683685642
 20
137.0703925818134
 30
0.0
 10
530.2125963974663
 20
132.6753441283534
 30
0.0
 10
537.7091430496151
 20
125.1220488373766
 30
0.0
 10
547.905409435033
 20
119.9259989846292
 30
0.0
 10
558.4368491107666
 20
118.4540541304148
 30
0.0
 10
564.3207908328317
 20
117.6316748539855
 30
0.0
 10
570.30935639084
 20
117.9717693236929
 30
0.0
 10
576.0796413471686
 20
119.1768969998827
 30
0.0
 10
579.9453880289714
 20
119.9842606484094
 30
0.0
 10
583.7131659973908
 20
121.1798685551109
 30
0.0
 10
587.417723413204
 20
122.5511792384042
 30
0.0
 10
590.7920764809171
 20
123.8002586537225
 30
0.0
 10
594.1139769907828
 20
125.1951143976731
 30
0.0
 10
597.2808417075745
 20
126.8896080129719
 30
0.0
  0
ENDBLK
  5
1CE
330
1CB
100
AcDbEntity
  8
0
100
AcDbBlockEnd
  0
BLOCK
  5
1D2
330
1D0
100
AcDbEntity
  8
0
100
AcDbBlockBegin
  2
block 70
 70
     0
 10
0.0
 20
0.0
 30
0.0
  3
block 70
  1

  0
SPLINE
  5
1D4
330
1D0
100
AcDbEntity
  8
0
 62
     1
370
    25
100
AcDbSpline
210
0.0
220
0.0
230
1.0
 70
    11
 71
     3
 72
    20
 73
    16
 74
     0
 42
0.0000000001
 43
0.0000000001
 12
1.0
 22
0.0
 32
0.0
 13
1.0
 23
0.0
 33
0.0
 40
0.0
 40
0.0
 40
0.0
 40
0.0
 40
1.0
 40
1.0
 40
1.0
 40
2.0
 40
2.0
 40
2.0
 40
3.0
 40
3.0
 40
3.0
 40
4.0
 40
4.0
 40
4.0
 40
5.0
 40
5.0
 40
5.0
 40
5.0
 10
636.9381697859736
 20
58.58645124937065
 30
0.0
 10
636.9381697859736
 20
59.69102074903193
 30
0.0
 10
637.8336002863117
 20
60.58645124937073
 30
0.0
 10
638.9381697859736
 20
60.58645124937073
 30
0.0
 10
640.0427392856355
 20
60.58645124937073
 30
0.0
 10
640.9381697859737
 20
59.69102074903193
 30
0.0
 10
640.9381697859737
 20
58.58645124937065
 30
0.0
 10
640.9381697859737
 20
57.48188174970939
 30
0.0
 10
640.0427392856355
 20
56.58645124937058
 30
0.0
 10
638.9381697859736
 20
56.58645124937058
 30
0.0
 10
637.8336002863117
 20
56.58645124937058
 30
0.0
 10
636.9381697859736
 20
57.48188174970939
 30
0.0
 10
636.9381697859736
 20
58.58645124937065
 30
0.0
 10
636.9381697859736
 20
58.58645124937065
 30
0.0
 10
636.9381697859736
 20
58.58645124937065
 30
0.0
 10
636.9381697859736
 20
58.58645124937065
 30
0.0
  0
ENDBLK
  5
1D3
330
1D0
100
AcDbEntity
  8
0
100
AcDbBlockEnd
  0
BLOCK
  5
1D7
330
1D5
100
AcDbEntity
  8
0
100
AcDbBlockBegin
  2
block 71
 70
     0
 10
0.0
 20
0.0
 30
0.0
  3
block 71
  1

  0
SPLINE
  5
1D9
330
1D5
100
AcDbEntity
  8
0
 62
     1
370
    25
100
AcDbSpline
210
0.0
220
0.0
230
1.0
 70
    11
 71
     3
 72
    20
 73
    16
 74
     0
 42
0.0000000001
 43
0.0000000001
 12
1.0
 22
0.0
 32
0.0
 13
1.0
 23
0.0
 33
0.0
 40
0.0
 40
0.0
 40
0.0
 40
0.0
 40
1.0
 40
1.0
 40
1.0
 40
2.0
 40
2.0
 40
2.0
 40
3.0
 40
3.0
 40
3.0
 40
4.0
 40
4.0
 40
4.0
 40
5.0
 40
5.0
 40
5.0
 40
5.0
 10
606.9382859498793
 20
66.62536053937136
 30
0.0
 10
606.9382859498793
 20
67.72993003903326
 30
0.0
 10
607.8337164502175
 20
68.62536053937143
 30
0.0
 10
608.9382859498787
 20
68.62536053937143
 30
0.0
 10
610.0428554495406
 20
68.62536053937143
 30
0.0
 10
610.9382859498788
 20
67.72993003903326
 30
0.0
 10
610.9382859498788
 20
66.62536053937136
 30
0.0
 10
610.9382859498788
 20
65.52079103971009
 30
0.0
 10
610.0428554495406
 20
64.62536053937129
 30
0.0
 10
608.9382859498787
 20
64.62536053937129
 30
0.0
 10
607.8337164502175
 20
64.62536053937129
 30
0.0
 10
606.9382859498793
 20
65.52079103971009
 30
0.0
 10
606.9382859498793
 20
66.62536053937136
 30
0.0
 10
606.9382859498793
 20
66.62536053937136
 30
0.0
 10
606.9382859498793
 20
66.62536053937136
 30
0.0
 10
606.9382859498793
 20
66.62536053937136
 30
0.0
  0
ENDBLK
  5
1D8
330
1D5
100
AcDbEntity
  8
0
100
AcDbBlockEnd
  0
BLOCK
  5
1DC
330
1DA
100
AcDbEntity
  8
0
100
AcDbBlockBegin
  2
block 72
 70
     0
 10
0.0
 20
0.0
 30
0.0
  3
block 72
  1

  0
SPLINE
  5
1DE
330
1DA
100
AcDbEntity
  8
0
 62
     1
370
    25
100
AcDbSpline
210
0.0
220
0.0
230
1.0
 70
    11
 71
     3
 72
    20
 73
    16
 74
     0
 42
0.0000000001
 43
0.0000000001
 12
1.0
 22
0.0
 32
0.0
 13
1.0
 23
0.0
 33
0.0
 40
0.0
 40
0.0
 40
0.0
 40
0.0
 40
1.0
 40
1.0
 40
1.0
 40
2.0
 40
2.0
 40
2.0
 40
3.0
 40
3.0
 40
3.0
 40
4.0
 40
4.0
 40
4.0
 40
5.0
 40
5.0
 40
5.0
 40
5.0
 10
636.9388913392555
 20
108.518871939147
 30
0.0
 10
636.9388913392555
 20
109.6234414388089
 30
0.0
 10
637.8343218395937
 20
110.5188719391471
 30
0.0
 10
638.9388913392556
 20
110.5188719391471
 30
0.0
 10
640.0434608389176
 20
110.5188719391471
 30
0.0
 10
640.9388913392557
 20
109.6234414388089
 30
0.0
 10
640.9388913392557
 20
108.518871939147
 30
0.0
 10
640.9388913392557
 20
107.4143024394857
 30
0.0
 10
640.0434608389176
 20
106.5188719391469
 30
0.0
 10
638.9388913392556
 20
106.5188719391469
 30
0.0
 10
637.8343218395937
 20
106.5188719391469
 30
0.0
 10
636.9388913392555
 20
107.4143024394857
 30
0.0
 10
636.9388913392555
 20
108.518871939147
 30
0.0
 10
636.9388913392555
 20
108.518871939147
 30
0.0
 10
636.9388913392555
 20
108.518871939147
 30
0.0
 10
636.9388913392555
 20
108.518871939147
 30
0.0
  0
ENDBLK
  5
1DD
330
1DA
100
AcDbEntity
  8
0
100
AcDbBlockEnd
  0
BLOCK
  5
1E1
330
1DF
100
AcDbEntity
  8
0
100
AcDbBlockBegin
  2
block 73
 70
     0
 10
0.0
 20
0.0
 30
0.0
  3
block 73
  1

  0
SPLINE
  5
1E3
330
1DF
100
AcDbEntity
  8
0
 62
     1
370
    25
100
AcDbSpline
210
0.0
220
0.0
230
1.0
 70
    11
 71
     3
 72
    20
 73
    16
 74
     0
 42
0.0000000001
 43
0.0000000001
 12
1.0
 22
0.0
 32
0.0
 13
1.0
 23
0.0
 33
0.0
 40
0.0
 40
0.0
 40
0.0
 40
0.0
 40
1.0
 40
1.0
 40
1.0
 40
2.0
 40
2.0
 40
2.0
 40
3.0
 40
3.0
 40
3.0
 40
4.0
 40
4.0
 40
4.0
 40
5.0
 40
5.0
 40
5.0
 40
5.0
 10
606.9390075031606
 20
116.5577812291477
 30
0.0
 10
606.9390075031606
 20
117.6623507288096
 30
0.0
 10
607.8344380034988
 20
118.5577812291478
 30
0.0
 10
608.9390075031607
 20
118.5577812291478
 30
0.0
 10
610.0435770028226
 20
118.5577812291478
 30
0.0
 10
610.9390075031608
 20
117.6623507288096
 30
0.0
 10
610.9390075031608
 20
116.5577812291477
 30
0.0
 10
610.9390075031608
 20
115.4532117294864
 30
0.0
 10
610.0435770028226
 20
114.5577812291483
 30
0.0
 10
608.9390075031607
 20
114.5577812291483
 30
0.0
 10
607.8344380034988
 20
114.5577812291483
 30
0.0
 10
606.9390075031606
 20
115.4532117294864
 30
0.0
 10
606.9390075031606
 20
116.5577812291477
 30
0.0
 10
606.9390075031606
 20
116.5577812291477
 30
0.0
 10
606.9390075031606
 20
116.5577812291477
 30
0.0
 10
606.9390075031606
 20
116.5577812291477
 30
0.0
  0
ENDBLK
  5
1E2
330
1DF
100
AcDbEntity
  8
0
100
AcDbBlockEnd
  0
BLOCK
  5
1E6
330
1E4
100
AcDbEntity
  8
0
100
AcDbBlockBegin
  2
block 74
 70
     0
 10
0.0
 20
0.0
 30
0.0
  3
block 74
  1

  0
POLYLINE
  5
1E8
330
1E4
100
AcDbEntity
  8
0
 62
     3
370
    25
100
AcDb2dPolyline
 66
     1
 10
0.0
 20
0.0
 30
0.0
  0
VERTEX
  5
1E9
330
1E8
100
AcDbEntity
  8
0
 62
     3
370
    25
100
AcDbVertex
100
AcDb2dVertex
 10
623.9357358568749
 20
-265.6000676395486
 30
0.0
  0
VERTEX
  5
1EA
330
1E8
100
AcDbEntity
  8
0
 62
     3
370
    25
100
AcDbVertex
100
AcDb2dVertex
 10
623.9386036149637
 20
131.3050728883677
 30
0.0
  0
SEQEND
  5
1EB
330
1E8
100
AcDbEntity
  8
0
 62
     3
370
    25
  0
ENDBLK
  5
1E7
330
1E4
100
AcDbEntity
  8
0
100
AcDbBlockEnd
  0
BLOCK
  5
1EE
330
1EC
100
AcDbEntity
  8
0
100
AcDbBlockBegin
  2
block 75
 70
     0
 10
0.0
 20
0.0
 30
0.0
  3
block 75
  1

  0
POLYLINE
  5
1F0
330
1EC
100
AcDbEntity
  8
0
 62
     3
370
    25
100
AcDb2dPolyline
 66
     1
 10
0.0
 20
0.0
 30
0.0
  0
VERTEX
  5
1F1
330
1F0
100
AcDbEntity
  8
0
 62
     3
370
    25
100
AcDbVertex
100
AcDb2dVertex
 10
253.0296687264702
 20
-265.6000676395486
 30
0.0
  0
VERTEX
  5
1F2
330
1F0
100
AcDbEntity
  8
0
 62
     3
370
    25
100
AcDbVertex
100
AcDb2dVertex
 10
253.031170559848
 20
-57.74244172487138
 30
0.0
  0
SEQEND
  5
1F3
330
1F0
100
AcDbEntity
  8
0
 62
     3
370
    25
  0
ENDBLK
  5
1EF
330
1EC
100
AcDbEntity
  8
0
100
AcDbBlockEnd
  0
BLOCK
  5
1F6
330
1F4
100
AcDbEntity
  8
0
100
AcDbBlockBegin
  2
block 76
 70
     0
 10
0.0
 20
0.0
 30
0.0
  3
block 76
  1

  0
SPLINE
  5
1F8
330
1F4
100
AcDbEntity
  8
0
 62
     1
370
    25
100
AcDbSpline
210
0.0
220
0.0
230
1.0
 70
    11
 71
     3
 72
   191
 73
   187
 74
     0
 42
0.0000000001
 43
0.0000000001
 12
1.0
 22
0.0
 32
0.0
 13
1.0
 23
0.0
 33
0.0
 40
0.0
 40
0.0
 40
0.0
 40
0.0
 40
1.0
 40
1.0
 40
1.0
 40
2.0
 40
2.0
 40
2.0
 40
3.0
 40
3.0
 40
3.0
 40
4.0
 40
4.0
 40
4.0
 40
5.0
 40
5.0
 40
5.0
 40
6.0
 40
6.0
 40
6.0
 40
7.0
 40
7.0
 40
7.0
 40
8.0
 40
8.0
 40
8.0
 40
9.0
 40
9.0
 40
9.0
 40
10.0
 40
10.0
 40
10.0
 40
11.0
 40
11.0
 40
11.0
 40
12.0
 40
12.0
 40
12.0
 40
13.0
 40
13.0
 40
13.0
 40
14.0
 40
14.0
 40
14.0
 40
15.0
 40
15.0
 40
15.0
 40
16.0
 40
16.0
 40
16.0
 40
17.0
 40
17.0
 40
17.0
 40
18.0
 40
18.0
 40
18.0
 40
19.0
 40
19.0
 40
19.0
 40
20.0
 40
20.0
 40
20.0
 40
21.0
 40
21.0
 40
21.0
 40
22.0
 40
22.0
 40
22.0
 40
23.0
 40
23.0
 40
23.0
 40
24.0
 40
24.0
 40
24.0
 40
25.0
 40
25.0
 40
25.0
 40
26.0
 40
26.0
 40
26.0
 40
27.0
 40
27.0
 40
27.0
 40
28.0
 40
28.0
 40
28.0
 40
29.0
 40
29.0
 40
29.0
 40
30.0
 40
30.0
 40
30.0
 40
31.0
 40
31.0
 40
31.0
 40
32.0
 40
32.0
 40
32.0
 40
33.0
 40
33.0
 40
33.0
 40
34.0
 40
34.0
 40
34.0
 40
35.0
 40
35.0
 40
35.0
 40
36.0
 40
36.0
 40
36.0
 40
37.0
 40
37.0
 40
37.0
 40
38.0
 40
38.0
 40
38.0
 40
39.0
 40
39.0
 40
39.0
 40
40.0
 40
40.0
 40
40.0
 40
41.0
 40
41.0
 40
41.0
 40
42.0
 40
42.0
 40
42.0
 40
43.0
 40
43.0
 40
43.0
 40
44.0
 40
44.0
 40
44.0
 40
45.0
 40
45.0
 40
45.0
 40
46.0
 40
46.0
 40
46.0
 40
47.0
 40
47.0
 40
47.0
 40
48.0
 40
48.0
 40
48.0
 40
49.0
 40
49.0
 40
49.0
 40
50.0
 40
50.0
 40
50.0
 40
51.0
 40
51.0
 40
51.0
 40
52.0
 40
52.0
 40
52.0
 40
53.0
 40
53.0
 40
53.0
 40
54.0
 40
54.0
 40
54.0
 40
55.0
 40
55.0
 40
55.0
 40
56.0
 40
56.0
 40
56.0
 40
57.0
 40
57.0
 40
57.0
 40
58.0
 40
58.0
 40
58.0
 40
59.0
 40
59.0
 40
59.0
 40
60.0
 40
60.0
 40
60.0
 40
61.0
 40
61.0
 40
61.0
 40
62.0
 40
62.0
 40
62.0
 40
62.0
 10
279.6902345830615
 20
126.8892227928626
 30
0.0
 10
272.5296061714851
 20
130.7207917811282
 30
0.0
 10
263.8372140500534
 20
132.5683144464599
 30
0.0
 10
255.8080007075784
 20
131.7098645096228
 30
0.0
 10
245.1454109102962
 20
130.5698649670061
 30
0.0
 10
235.6523475110216
 20
124.6578394022361
 30
0.0
 10
225.4124303206009
 20
120.6224010471174
 30
0.0
 10
219.1684119838834
 20
118.1617023307618
 30
0.0
 10
212.6466967415911
 20
116.398760614958
 30
0.0
 10
206.1136708754557
 20
116.5248571486278
 30
0.0
 10
195.0349777881479
 20
116.7386914154021
 30
0.0
 10
183.92375838562
 20
122.3848921382566
 30
0.0
 10
175.7181004884775
 20
130.5046962766587
 30
0.0
 10
170.1684479949486
 20
135.9962841357308
 30
0.0
 10
165.9478256669176
 20
142.6193206151971
 30
0.0
 10
164.0904894420325
 20
149.9157445000513
 30
0.0
 10
162.9189880583094
 20
154.517911066778
 30
0.0
 10
162.6876879904808
 20
159.3879756775918
 30
0.0
 10
162.8843221754694
 20
164.1366266392076
 30
0.0
 10
163.0206398330351
 20
167.4286532810684
 30
0.0
 10
163.362623837613
 20
170.662328198234
 30
0.0
 10
163.3667946274374
 20
174.0189530838502
 30
0.0
 10
163.3705170513855
 20
177.0147359891904
 30
0.0
 10
163.1051531109902
 20
180.108455146168
 30
0.0
 10
161.7283957044309
 20
182.6960956879752
 30
0.0
 10
160.230010621672
 20
185.512337655452
 30
0.0
 10
157.4151891526355
 20
187.7291336808649
 30
0.0
 10
154.3467973210078
 20
188.8503869940539
 30
0.0
 10
149.3641466290233
 20
190.6711497595078
 30
0.0
 10
143.7128476444665
 20
189.6030387761447
 30
0.0
 10
138.8091658632979
 20
187.388224833277
 30
0.0
 10
132.1014396124394
 20
184.3585899001139
 30
0.0
 10
126.7926092321881
 20
179.1833140860366
 30
0.0
 10
122.8876858552175
 20
173.167342694121
 30
0.0
 10
117.9098388315264
 20
165.4984123728587
 30
0.0
 10
115.2133653441214
 20
156.4633369729892
 30
0.0
 10
114.2032371732202
 20
147.3769422853164
 30
0.0
 10
112.8383445862869
 20
135.0993391965111
 30
0.0
 10
114.5523159218096
 20
122.7280393409781
 30
0.0
 10
117.3392942476567
 20
110.7400902100252
 30
0.0
 10
119.6982881589943
 20
100.5930794682922
 30
0.0
 10
122.8260389382383
 20
90.7207207139137
 30
0.0
 10
126.0237429296476
 20
80.85214590272872
 30
0.0
 10
127.950381060913
 20
74.90626329960011
 30
0.0
 10
129.9024132115385
 20
68.9617543221242
 30
0.0
 10
131.8133568998362
 20
63.01579027977886
 30
0.0
 10
133.8816620497842
 20
56.58019088169057
 30
0.0
 10
135.9018330464652
 20
50.14288690982473
 30
0.0
 10
137.3617762341088
 20
43.49219600916945
 30
0.0
 10
139.5487729815727
 20
33.52945260160003
 30
0.0
 10
140.4786141550386
 20
23.08786726112799
 30
0.0
 10
138.8091658632979
 20
13.1221968947279
 30
0.0
 10
137.4530363395498
 20
5.026863918751339
 30
0.0
 10
134.3817215221666
 20
-2.754428479799088
 30
0.0
 10
130.8484397226133
 20
-10.25789826325014
 30
0.0
 10
126.7844592757933
 20
-18.88838861561883
 30
0.0
 10
122.109315055685
 20
-27.15133080047303
 30
0.0
 10
116.6155717063504
 20
-34.84313043909032
 30
0.0
 10
111.9404152521485
 20
-41.3888251390919
 30
0.0
 10
106.6724333430097
 20
-47.52090122197308
 30
0.0
 10
101.4177865128632
 20
-53.64362689143236
 30
0.0
 10
96.17040531082489
 20
-59.75788663555653
 30
0.0
 10
90.93632233630449
 20
-65.86282180611423
 30
0.0
 10
85.97877895674351
 20
-72.20308033264895
 30
0.0
 10
78.31264183706219
 20
-82.00739015251592
 30
0.0
 10
71.30777261888214
 20
-92.37441064607223
 30
0.0
 10
65.68551793656418
 20
-103.5372046689336
 30
0.0
 10
60.20949071309539
 20
-114.409669082795
 30
0.0
 10
56.04509332180734
 20
-126.0370512800461
 30
0.0
 10
54.10626226947638
 20
-138.0047788969667
 30
0.0
 10
52.40955407886065
 20
-148.477966566555
 30
0.0
 10
52.41725922279205
 20
-159.2118021716742
 30
0.0
 10
53.62378981750902
 20
-169.8209736479475
 30
0.0
 10
54.6479721278
 20
-178.8267342978834
 30
0.0
 10
56.53599544644419
 20
-187.7426653677936
 30
0.0
 10
59.89590396637585
 20
-196.0934444714504
 30
0.0
 10
63.02811731341815
 20
-203.8783057590449
 30
0.0
 10
67.43948133576448
 20
-211.1720183356868
 30
0.0
 10
72.68132690002584
 20
-217.786316589318
 30
0.0
 10
79.8603651853224
 20
-226.845015440908
 30
0.0
 10
88.5971402713959
 20
-234.6293347421855
 30
0.0
 10
98.25220049403825
 20
-240.9253687361706
 30
0.0
 10
111.5351728050137
 20
-249.5871526383515
 30
0.0
 10
126.556178505758
 20
-255.4320668618599
 30
0.0
 10
141.915693993341
 20
-259.4848221773884
 30
0.0
 10
153.4264299041726
 20
-262.522040127784
 30
0.0
 10
165.127283438585
 20
-264.552725901229
 30
0.0
 10
176.9147297673728
 20
-265.7516595306865
 30
0.0
 10
190.9184487655931
 20
-267.1760163571037
 30
0.0
 10
205.0443840473439
 20
-267.4264457616058
 30
0.0
 10
219.1308059107731
 20
-267.1978395596735
 30
0.0
 10
230.809126380851
 20
-267.0083140354848
 30
0.0
 10
242.4602884623035
 20
-266.4895374437548
 30
0.0
 10
254.1098230013767
 20
-265.5106165195617
 30
0.0
 10
273.0968744288801
 20
-263.9151174145308
 30
0.0
 10
292.0796024086536
 20
-261.0972784218
 30
0.0
 10
310.3248091959959
 20
-255.6283056824695
 30
0.0
 10
326.1307334444526
 20
-250.8905041413713
 30
0.0
 10
341.3831588508046
 20
-244.1630655917807
 30
0.0
 10
355.4356923244925
 20
-235.381629201143
 30
0.0
 10
368.3107777018657
 20
-227.3359808148837
 30
0.0
 10
380.1786227374877
 20
-217.5661192465419
 30
0.0
 10
389.6910423272082
 20
-205.7346966898669
 30
0.0
 10
396.2907789705447
 20
-197.5260309288991
 30
0.0
 10
401.7567048472298
 20
-188.3250093925662
 30
0.0
 10
405.3786198236668
 20
-178.498116252075
 30
0.0
 10
410.1278614089094
 20
-165.6125875027308
 30
0.0
 10
411.7065464311069
 20
-151.6509472608127
 30
0.0
 10
411.6507062458228
 20
-137.7637202782941
 30
0.0
 10
411.5966242817542
 20
-124.3137557616355
 30
0.0
 10
410.009328121207
 20
-110.9335922276688
 30
0.0
 10
406.1023146382626
 20
-98.23447692992893
 30
0.0
 10
403.57402808045
 20
-90.01669046885088
 30
0.0
 10
400.0743421090646
 20
-82.08409817815584
 30
0.0
 10
396.2116986897085
 20
-74.37234257235676
 30
0.0
 10
392.4540295129845
 20
-66.87016771636873
 30
0.0
 10
388.3528628514456
 20
-59.57698938666967
 30
0.0
 10
384.3911929332811
 20
-52.19740003979246
 30
0.0
 10
379.5463814866389
 20
-43.17274132823793
 30
0.0
 10
374.9101925914252
 20
-34.01885173688549
 30
0.0
 10
371.1232698209517
 20
-24.4787647948523
 30
0.0
 10
368.2752053590598
 20
-17.30386733066016
 30
0.0
 10
365.9075049874994
 20
-9.910527927429069
 30
0.0
 10
364.6099333094561
 20
-2.303822262291212
 30
0.0
 10
362.9860495070915
 20
7.215810701338023
 30
0.0
 10
363.0382011288169
 20
17.06961787730995
 30
0.0
 10
364.6099333094561
 20
26.62001243071373
 30
0.0
 10
366.1305681059242
 20
35.85992140299106
 30
0.0
 10
369.0735856841924
 20
44.81582510316223
 30
0.0
 10
372.8119095394861
 20
53.37453806136304
 30
0.0
 10
376.0524693939823
 20
60.79364424159034
 30
0.0
 10
379.8906431080837
 20
67.9142909488251
 30
0.0
 10
383.6674981186853
 20
75.06741017922803
 30
0.0
 10
387.6458026641725
 20
82.60206180573628
 30
0.0
 10
391.5560728362086
 20
90.17274237026835
 30
0.0
 10
395.0055036964349
 20
97.96541931495837
 30
0.0
 10
399.2043372030416
 20
107.4510864836499
 30
0.0
 10
402.7203417388382
 20
117.2656873086122
 30
0.0
 10
405.1373697343272
 20
127.3713088151091
 30
0.0
 10
407.2887760680485
 20
136.3663631363011
 30
0.0
 10
408.5694795918677
 20
145.5919888262699
 30
0.0
 10
408.5146491713915
 20
154.8489322640289
 30
0.0
 10
408.4604178212682
 20
164.0047354893449
 30
0.0
 10
407.0996768532811
 20
173.191175853367
 30
0.0
 10
403.9312024677653
 20
181.8445165133505
 30
0.0
 10
401.3140647063958
 20
188.9921155934495
 30
0.0
 10
397.4635746317841
 20
195.7759996773051
 30
0.0
 10
392.1106967113379
 20
201.1270677728354
 30
0.0
 10
389.701953610666
 20
203.5349964698643
 30
0.0
 10
386.9889900971751
 20
205.6527924473899
 30
0.0
 10
383.9087204813138
 20
207.1528621150113
 30
0.0
 10
382.0133755316498
 20
208.075881792909
 30
0.0
 10
379.9789625833711
 20
208.7650203535149
 30
0.0
 10
377.8778564217862
 20
208.8400851551208
 30
0.0
 10
375.4290008202359
 20
208.9275737662401
 30
0.0
 10
372.8895485967452
 20
208.180899417888
 30
0.0
 10
370.8820474583233
 20
206.7585529572115
 30
0.0
 10
368.7695633925561
 20
205.2618244240753
 30
0.0
 10
367.2461223035831
 20
203.016906962385
 30
0.0
 10
366.2327220956624
 20
200.6449973581387
 30
0.0
 10
363.8749832297092
 20
195.126601548913
 30
0.0
 10
364.2780409829044
 20
188.9208108839967
 30
0.0
 10
363.9472927066359
 20
182.9223271335972
 30
0.0
 10
363.7475272899818
 20
179.299361598571
 30
0.0
 10
363.2800752263632
 20
175.7520199895024
 30
0.0
 10
362.9339092432209
 20
172.1772309005681
 30
0.0
 10
362.7716172619974
 20
170.5012730307849
 30
0.0
 10
362.6359838175507
 20
168.8192822374495
 30
0.0
 10
362.4388211389601
 20
167.1415639594977
 30
0.0
 10
361.659530715425
 20
160.510340460474
 30
0.0
 10
359.9190026513733
 20
153.9458641372195
 30
0.0
 10
357.1316796207389
 20
147.85901270001
 30
0.0
 10
354.5687015060432
 20
142.26207727146
 30
0.0
 10
351.1206550330282
 20
137.0689751505578
 30
0.0
 10
346.7585634935076
 20
132.6739897314646
 30
0.0
 10
339.261907692516
 20
125.1208027708504
 30
0.0
 10
329.0655662221413
 20
119.92490026078
 30
0.0
 10
318.5341052770254
 20
118.4531075923083
 30
0.0
 10
312.6501516717029
 20
117.6308133424347
 30
0.0
 10
306.6615910288885
 20
117.9709943504534
 30
0.0
 10
300.8913234879767
 20
119.1762054105789
 30
0.0
 10
297.0255884734643
 20
119.9836249213684
 30
0.0
 10
293.2578277826857
 20
121.1792872745855
 30
0.0
 10
289.5532901835167
 20
122.5506514908011
 30
0.0
 10
286.1789551660995
 20
123.7997796674055
 30
0.0
 10
282.857074813078
 20
125.1946834146557
 30
0.0
 10
279.6902345830615
 20
126.8892227928626
 30
0.0
  0
ENDBLK
  5
1F7
330
1F4
100
AcDbEntity
  8
0
100
AcDbBlockEnd
  0
BLOCK
  5
1FB
330
1F9
100
AcDbEntity
  8
0
100
AcDbBlockBegin
  2
block 77
 70
     0
 10
0.0
 20
0.0
 30
0.0
  3
block 77
  1

  0
SPLINE
  5
1FD
330
1F9
100
AcDbEntity
  8
0
 62
     1
370
    25
100
AcDbSpline
210
0.0
220
0.0
230
1.0
 70
    11
 71
     3
 72
    53
 73
    49
 74
     0
 42
0.0000000001
 43
0.0000000001
 12
1.0
 22
0.0
 32
0.0
 13
1.0
 23
0.0
 33
0.0
 40
0.0
 40
0.0
 40
0.0
 40
0.0
 40
1.0
 40
1.0
 40
1.0
 40
2.0
 40
2.0
 40
2.0
 40
3.0
 40
3.0
 40
3.0
 40
4.0
 40
4.0
 40
4.0
 40
5.0
 40
5.0
 40
5.0
 40
6.0
 40
6.0
 40
6.0
 40
7.0
 40
7.0
 40
7.0
 40
8.0
 40
8.0
 40
8.0
 40
9.0
 40
9.0
 40
9.0
 40
10.0
 40
10.0
 40
10.0
 40
11.0
 40
11.0
 40
11.0
 40
12.0
 40
12.0
 40
12.0
 40
13.0
 40
13.0
 40
13.0
 40
14.0
 40
14.0
 40
14.0
 40
15.0
 40
15.0
 40
15.0
 40
16.0
 40
16.0
 40
16.0
 40
16.0
 10
210.075434901335
 20
-44.06572942410813
 30
0.0
 10
210.075434901335
 20
-47.37943792309257
 30
0.0
 10
212.7617264023501
 20
-50.06572942410834
 30
0.0
 10
216.0754349013352
 20
-50.06572942410834
 30
0.0
 10
216.0754349013352
 20
-50.06572942410834
 30
0.0
 10
216.0754349013346
 20
-51.74244172487181
 30
0.0
 10
216.0754349013346
 20
-51.74244172487181
 30
0.0
 10
216.0754349013352
 20
-55.05615022385626
 30
0.0
 10
218.7617264023503
 20
-57.74244172487138
 30
0.0
 10
222.0754349013348
 20
-57.74244172487138
 30
0.0
 10
222.0754349013348
 20
-57.74244172487138
 30
0.0
 10
283.9884040739235
 20
-57.74244172487138
 30
0.0
 10
283.9884040739235
 20
-57.74244172487138
 30
0.0
 10
287.302112572908
 20
-57.74244172487138
 30
0.0
 10
289.9884040739237
 20
-55.05615022385626
 30
0.0
 10
289.9884040739237
 20
-51.74244172487181
 30
0.0
 10
289.9884040739237
 20
-51.74244172487181
 30
0.0
 10
289.9884040739237
 20
-50.24244172487144
 30
0.0
 10
289.9884040739237
 20
-50.24244172487144
 30
0.0
 10
293.3021125729082
 20
-50.24244172487144
 30
0.0
 10
295.9884040739233
 20
-47.55615022385631
 30
0.0
 10
295.9884040739233
 20
-44.24244172487187
 30
0.0
 10
295.9884040739233
 20
-44.24244172487187
 30
0.0
 10
295.9884040739233
 20
-30.24244172487137
 30
0.0
 10
295.9884040739233
 20
-30.24244172487137
 30
0.0
 10
295.9884040739233
 20
-26.92873322588692
 30
0.0
 10
293.3021125729082
 20
-24.2424417248718
 30
0.0
 10
289.9884040739237
 20
-24.2424417248718
 30
0.0
 10
289.9884040739237
 20
-24.2424417248718
 30
0.0
 10
289.9884040739237
 20
-22.74244172487015
 30
0.0
 10
289.9884040739237
 20
-22.74244172487015
 30
0.0
 10
289.9884040739237
 20
-19.42873322588505
 30
0.0
 10
287.302112572908
 20
-16.74244172486993
 30
0.0
 10
283.9884040739235
 20
-16.74244172486993
 30
0.0
 10
283.9884040739235
 20
-16.74244172486993
 30
0.0
 10
222.0754349013348
 20
-16.74244172487122
 30
0.0
 10
222.0754349013348
 20
-16.74244172487122
 30
0.0
 10
218.7617264023503
 20
-16.74244172487122
 30
0.0
 10
216.0754349013352
 20
-19.42873322588698
 30
0.0
 10
216.0754349013352
 20
-22.74244172487143
 30
0.0
 10
216.0754349013352
 20
-22.74244172487143
 30
0.0
 10
216.0754349013352
 20
-24.06572942410806
 30
0.0
 10
216.0754349013352
 20
-24.06572942410806
 30
0.0
 10
212.7617264023501
 20
-24.06572942410806
 30
0.0
 10
210.075434901335
 20
-26.75202092512318
 30
0.0
 10
210.075434901335
 20
-30.06572942410763
 30
0.0
 10
210.075434901335
 20
-30.06572942410763
 30
0.0
 10
210.075434901335
 20
-44.06572942410813
 30
0.0
 10
210.075434901335
 20
-44.06572942410813
 30
0.0
  0
ENDBLK
  5
1FC
330
1F9
100
AcDbEntity
  8
0
100
AcDbBlockEnd
  0
BLOCK
  5
200
330
1FE
100
AcDbEntity
  8
0
100
AcDbBlockBegin
  2
block 78
 70
     0
 10
0.0
 20
0.0
 30
0.0
  3
block 78
  1

  0
SPLINE
  5
202
330
1FE
100
AcDbEntity
  8
0
 62
     1
370
    25
100
AcDbSpline
210
0.0
220
0.0
230
1.0
 70
    11
 71
     3
 72
    20
 73
    16
 74
     0
 42
0.0000000001
 43
0.0000000001
 12
1.0
 22
0.0
 32
0.0
 13
1.0
 23
0.0
 33
0.0
 40
0.0
 40
0.0
 40
0.0
 40
0.0
 40
1.0
 40
1.0
 40
1.0
 40
2.0
 40
2.0
 40
2.0
 40
3.0
 40
3.0
 40
3.0
 40
4.0
 40
4.0
 40
4.0
 40
5.0
 40
5.0
 40
5.0
 40
5.0
 10
210.6550423879555
 20
-75.82007326966365
 30
0.0
 10
210.6550423879555
 20
-72.6996644331202
 30
0.0
 10
213.1846335514111
 20
-70.17007326966393
 30
0.0
 10
216.3050423879552
 20
-70.17007326966393
 30
0.0
 10
219.4254512244993
 20
-70.17007326966393
 30
0.0
 10
221.9550423879556
 20
-72.6996644331202
 30
0.0
 10
221.9550423879556
 20
-75.82007326966365
 30
0.0
 10
221.9550423879556
 20
-78.94048210620775
 30
0.0
 10
219.4254512244993
 20
-81.47007326966401
 30
0.0
 10
216.3050423879552
 20
-81.47007326966401
 30
0.0
 10
213.1846335514111
 20
-81.47007326966401
 30
0.0
 10
210.6550423879555
 20
-78.94048210620775
 30
0.0
 10
210.6550423879555
 20
-75.82007326966365
 30
0.0
 10
210.6550423879555
 20
-75.82007326966365
 30
0.0
 10
210.6550423879555
 20
-75.82007326966365
 30
0.0
 10
210.6550423879555
 20
-75.82007326966365
 30
0.0
  0
ENDBLK
  5
201
330
1FE
100
AcDbEntity
  8
0
100
AcDbBlockEnd
  0
BLOCK
  5
205
330
203
100
AcDbEntity
  8
0
100
AcDbBlockBegin
  2
block 79
 70
     0
 10
0.0
 20
0.0
 30
0.0
  3
block 79
  1

  0
SPLINE
  5
207
330
203
100
AcDbEntity
  8
0
 62
     1
370
    25
100
AcDbSpline
210
0.0
220
0.0
230
1.0
 70
    11
 71
     3
 72
    20
 73
    16
 74
     0
 42
0.0000000001
 43
0.0000000001
 12
1.0
 22
0.0
 32
0.0
 13
1.0
 23
0.0
 33
0.0
 40
0.0
 40
0.0
 40
0.0
 40
0.0
 40
1.0
 40
1.0
 40
1.0
 40
2.0
 40
2.0
 40
2.0
 40
3.0
 40
3.0
 40
3.0
 40
4.0
 40
4.0
 40
4.0
 40
5.0
 40
5.0
 40
5.0
 40
5.0
 10
206.3819194876293
 20
-116.2943567384573
 30
0.0
 10
206.3819194876293
 20
-113.1739479019133
 30
0.0
 10
208.9115106510855
 20
-110.6443567384576
 30
0.0
 10
212.0319194876296
 20
-110.6443567384576
 30
0.0
 10
215.1523283241737
 20
-110.6443567384576
 30
0.0
 10
217.6819194876294
 20
-113.1739479019133
 30
0.0
 10
217.6819194876294
 20
-116.2943567384573
 30
0.0
 10
217.6819194876294
 20
-119.4147655750014
 30
0.0
 10
215.1523283241737
 20
-121.9443567384577
 30
0.0
 10
212.0319194876296
 20
-121.9443567384577
 30
0.0
 10
208.9115106510855
 20
-121.9443567384577
 30
0.0
 10
206.3819194876293
 20
-119.4147655750014
 30
0.0
 10
206.3819194876293
 20
-116.2943567384573
 30
0.0
 10
206.3819194876293
 20
-116.2943567384573
 30
0.0
 10
206.3819194876293
 20
-116.2943567384573
 30
0.0
 10
206.3819194876293
 20
-116.2943567384573
 30
0.0
  0
ENDBLK
  5
206
330
203
100
AcDbEntity
  8
0
100
AcDbBlockEnd
  0
BLOCK
  5
20A
330
208
100
AcDbEntity
  8
0
100
AcDbBlockBegin
  2
block 80
 70
     0
 10
0.0
 20
0.0
 30
0.0
  3
block 80
  1

  0
SPLINE
  5
20C
330
208
100
AcDbEntity
  8
0
 62
     1
370
    25
100
AcDbSpline
210
0.0
220
0.0
230
1.0
 70
    11
 71
     3
 72
    20
 73
    16
 74
     0
 42
0.0000000001
 43
0.0000000001
 12
1.0
 22
0.0
 32
0.0
 13
1.0
 23
0.0
 33
0.0
 40
0.0
 40
0.0
 40
0.0
 40
0.0
 40
1.0
 40
1.0
 40
1.0
 40
2.0
 40
2.0
 40
2.0
 40
3.0
 40
3.0
 40
3.0
 40
4.0
 40
4.0
 40
4.0
 40
5.0
 40
5.0
 40
5.0
 40
5.0
 10
288.381919487629
 20
-116.294350131361
 30
0.0
 10
288.381919487629
 20
-113.1739412948169
 30
0.0
 10
290.9115106510852
 20
-110.6443501313607
 30
0.0
 10
294.0319194876293
 20
-110.6443501313607
 30
0.0
 10
297.1523283241728
 20
-110.6443501313607
 30
0.0
 10
299.681919487629
 20
-113.1739412948169
 30
0.0
 10
299.681919487629
 20
-116.294350131361
 30
0.0
 10
299.681919487629
 20
-119.4147589679051
 30
0.0
 10
297.1523283241728
 20
-121.9443501313608
 30
0.0
 10
294.0319194876293
 20
-121.9443501313608
 30
0.0
 10
290.9115106510852
 20
-121.9443501313608
 30
0.0
 10
288.381919487629
 20
-119.4147589679051
 30
0.0
 10
288.381919487629
 20
-116.294350131361
 30
0.0
 10
288.381919487629
 20
-116.294350131361
 30
0.0
 10
288.381919487629
 20
-116.294350131361
 30
0.0
 10
288.381919487629
 20
-116.294350131361
 30
0.0
  0
ENDBLK
  5
20B
330
208
100
AcDbEntity
  8
0
100
AcDbBlockEnd
  0
BLOCK
  5
20F
330
20D
100
AcDbEntity
  8
0
100
AcDbBlockBegin
  2
block 81
 70
     0
 10
0.0
 20
0.0
 30
0.0
  3
block 81
  1

  0
SPLINE
  5
211
330
20D
100
AcDbEntity
  8
0
 62
     1
370
    25
100
AcDbSpline
210
0.0
220
0.0
230
1.0
 70
    11
 71
     3
 72
    20
 73
    16
 74
     0
 42
0.0000000001
 43
0.0000000001
 12
1.0
 22
0.0
 32
0.0
 13
1.0
 23
0.0
 33
0.0
 40
0.0
 40
0.0
 40
0.0
 40
0.0
 40
1.0
 40
1.0
 40
1.0
 40
2.0
 40
2.0
 40
2.0
 40
3.0
 40
3.0
 40
3.0
 40
4.0
 40
4.0
 40
4.0
 40
5.0
 40
5.0
 40
5.0
 40
5.0
 10
284.1087965873033
 20
-72.66354706476243
 30
0.0
 10
284.1087965873033
 20
-69.54313822821833
 30
0.0
 10
286.638387750759
 20
-67.01354706476207
 30
0.0
 10
289.7587965873031
 20
-67.01354706476207
 30
0.0
 10
292.8792054238472
 20
-67.01354706476207
 30
0.0
 10
295.4087965873028
 20
-69.54313822821833
 30
0.0
 10
295.4087965873028
 20
-72.66354706476243
 30
0.0
 10
295.4087965873028
 20
-75.78395590130651
 30
0.0
 10
292.8792054238472
 20
-78.31354706476213
 30
0.0
 10
289.7587965873031
 20
-78.31354706476213
 30
0.0
 10
286.638387750759
 20
-78.31354706476213
 30
0.0
 10
284.1087965873033
 20
-75.78395590130651
 30
0.0
 10
284.1087965873033
 20
-72.66354706476243
 30
0.0
 10
284.1087965873033
 20
-72.66354706476243
 30
0.0
 10
284.1087965873033
 20
-72.66354706476243
 30
0.0
 10
284.1087965873033
 20
-72.66354706476243
 30
0.0
  0
ENDBLK
  5
210
330
20D
100
AcDbEntity
  8
0
100
AcDbBlockEnd
  0
BLOCK
  5
214
330
212
100
AcDbEntity
  8
0
100
AcDbBlockBegin
  2
block 82
 70
     0
 10
0.0
 20
0.0
 30
0.0
  3
block 82
  1

  0
SPLINE
  5
216
330
212
100
AcDbEntity
  8
0
 62
     1
370
    25
100
AcDbSpline
210
0.0
220
0.0
230
1.0
 70
    11
 71
     3
 72
    53
 73
    49
 74
     0
 42
0.0000000001
 43
0.0000000001
 12
1.0
 22
0.0
 32
0.0
 13
1.0
 23
0.0
 33
0.0
 40
0.0
 40
0.0
 40
0.0
 40
0.0
 40
1.0
 40
1.0
 40
1.0
 40
2.0
 40
2.0
 40
2.0
 40
3.0
 40
3.0
 40
3.0
 40
4.0
 40
4.0
 40
4.0
 40
5.0
 40
5.0
 40
5.0
 40
6.0
 40
6.0
 40
6.0
 40
7.0
 40
7.0
 40
7.0
 40
8.0
 40
8.0
 40
8.0
 40
9.0
 40
9.0
 40
9.0
 40
10.0
 40
10.0
 40
10.0
 40
11.0
 40
11.0
 40
11.0
 40
12.0
 40
12.0
 40
12.0
 40
13.0
 40
13.0
 40
13.0
 40
14.0
 40
14.0
 40
14.0
 40
15.0
 40
15.0
 40
15.0
 40
16.0
 40
16.0
 40
16.0
 40
16.0
 10
213.3051384259155
 20
43.98549265478081
 30
0.0
 10
214.162789295371
 20
40.78469603481739
 30
0.0
 10
217.4528110343022
 20
38.88520109820636
 30
0.0
 10
220.6536076542656
 20
39.74285196766122
 30
0.0
 10
220.6536076542656
 20
39.74285196766186
 30
0.0
 10
221.0875727308603
 20
38.12327225309735
 30
0.0
 10
221.0875727308603
 20
38.12327225309735
 30
0.0
 10
221.9452236003158
 20
34.92247563313458
 30
0.0
 10
225.235245339247
 20
33.02298069652291
 30
0.0
 10
228.4360419592097
 20
33.8806315659784
 30
0.0
 10
228.4360419592097
 20
33.8806315659784
 30
0.0
 10
288.2393778652523
 20
49.90488712668948
 30
0.0
 10
288.2393778652523
 20
49.90488712668948
 30
0.0
 10
291.440174485215
 20
50.76253799614434
 30
0.0
 10
293.3396694218267
 20
54.05255973507551
 30
0.0
 10
292.4820185523712
 20
57.25335635503892
 30
0.0
 10
292.4820185523712
 20
57.25335635503892
 30
0.0
 10
292.0937899847178
 20
58.7022450944724
 30
0.0
 10
292.0937899847178
 20
58.7022450944724
 30
0.0
 10
295.2945866046806
 20
59.55989596392789
 30
0.0
 10
297.1940815412922
 20
62.84991770285906
 30
0.0
 10
296.3364306718368
 20
66.05071432282183
 30
0.0
 10
296.3364306718374
 20
66.05071432282183
 30
0.0
 10
292.7129640404015
 20
79.57367589086904
 30
0.0
 10
292.7129640404015
 20
79.57367589086904
 30
0.0
 10
291.8553131709467
 20
82.77447251083181
 30
0.0
 10
288.5652914320148
 20
84.6739674474435
 30
0.0
 10
285.364494812052
 20
83.816316577988
 30
0.0
 10
285.364494812052
 20
83.816316577988
 30
0.0
 10
284.976266244398
 20
85.2652053174234
 30
0.0
 10
284.976266244398
 20
85.2652053174234
 30
0.0
 10
284.1186153749425
 20
88.46600193738617
 30
0.0
 10
280.8285936360114
 20
90.36549687399784
 30
0.0
 10
277.6277970160486
 20
89.50784600454234
 30
0.0
 10
277.6277970160479
 20
89.50784600454298
 30
0.0
 10
217.8244611100067
 20
73.48359044382998
 30
0.0
 10
217.8244611100067
 20
73.48359044382998
 30
0.0
 10
214.6236644900439
 20
72.62593957437512
 30
0.0
 10
212.7241695534322
 20
69.33591783544395
 30
0.0
 10
213.5818204228871
 20
66.13512121548054
 30
0.0
 10
213.5818204228871
 20
66.13512121548054
 30
0.0
 10
213.9243124815992
 20
64.85692345117747
 30
0.0
 10
213.9243124815992
 20
64.85692345117747
 30
0.0
 10
210.723515788056
 20
63.99927251088609
 30
0.0
 10
208.8240209004701
 20
60.70925074365022
 30
0.0
 10
209.6816718176206
 20
57.50845413646752
 30
0.0
 10
209.6816717944809
 20
57.50845422282802
 30
0.0
 10
213.3051384259161
 20
43.98549265478081
 30
0.0
 10
213.3051384259155
 20
43.98549265478081
 30
0.0
  0
ENDBLK
  5
215
330
212
100
AcDbEntity
  8
0
100
AcDbBlockEnd
  0
BLOCK
  5
219
330
217
100
AcDbEntity
  8
0
100
AcDbBlockBegin
  2
block 83
 70
     0
 10
0.0
 20
0.0
 30
0.0
  3
block 83
  1

  0
SPLINE
  5
21B
330
217
100
AcDbEntity
  8
0
 62
     1
370
    25
100
AcDbSpline
210
0.0
220
0.0
230
1.0
 70
     8
 71
     3
 72
   191
 73
   187
 74
     0
 42
0.0000000001
 43
0.0000000001
 12
1.0
 22
0.0
 32
0.0
 13
1.0
 23
0.0
 33
0.0
 40
0.0
 40
0.0
 40
0.0
 40
0.0
 40
1.0
 40
1.0
 40
1.0
 40
2.0
 40
2.0
 40
2.0
 40
3.0
 40
3.0
 40
3.0
 40
4.0
 40
4.0
 40
4.0
 40
5.0
 40
5.0
 40
5.0
 40
6.0
 40
6.0
 40
6.0
 40
7.0
 40
7.0
 40
7.0
 40
8.0
 40
8.0
 40
8.0
 40
9.0
 40
9.0
 40
9.0
 40
10.0
 40
10.0
 40
10.0
 40
11.0
 40
11.0
 40
11.0
 40
12.0
 40
12.0
 40
12.0
 40
13.0
 40
13.0
 40
13.0
 40
14.0
 40
14.0
 40
14.0
 40
15.0
 40
15.0
 40
15.0
 40
16.0
 40
16.0
 40
16.0
 40
17.0
 40
17.0
 40
17.0
 40
18.0
 40
18.0
 40
18.0
 40
19.0
 40
19.0
 40
19.0
 40
20.0
 40
20.0
 40
20.0
 40
21.0
 40
21.0
 40
21.0
 40
22.0
 40
22.0
 40
22.0
 40
23.0
 40
23.0
 40
23.0
 40
24.0
 40
24.0
 40
24.0
 40
25.0
 40
25.0
 40
25.0
 40
26.0
 40
26.0
 40
26.0
 40
27.0
 40
27.0
 40
27.0
 40
28.0
 40
28.0
 40
28.0
 40
29.0
 40
29.0
 40
29.0
 40
30.0
 40
30.0
 40
30.0
 40
31.0
 40
31.0
 40
31.0
 40
32.0
 40
32.0
 40
32.0
 40
33.0
 40
33.0
 40
33.0
 40
34.0
 40
34.0
 40
34.0
 40
35.0
 40
35.0
 40
35.0
 40
36.0
 40
36.0
 40
36.0
 40
37.0
 40
37.0
 40
37.0
 40
38.0
 40
38.0
 40
38.0
 40
39.0
 40
39.0
 40
39.0
 40
40.0
 40
40.0
 40
40.0
 40
41.0
 40
41.0
 40
41.0
 40
42.0
 40
42.0
 40
42.0
 40
43.0
 40
43.0
 40
43.0
 40
44.0
 40
44.0
 40
44.0
 40
45.0
 40
45.0
 40
45.0
 40
46.0
 40
46.0
 40
46.0
 40
47.0
 40
47.0
 40
47.0
 40
48.0
 40
48.0
 40
48.0
 40
49.0
 40
49.0
 40
49.0
 40
50.0
 40
50.0
 40
50.0
 40
51.0
 40
51.0
 40
51.0
 40
52.0
 40
52.0
 40
52.0
 40
53.0
 40
53.0
 40
53.0
 40
54.0
 40
54.0
 40
54.0
 40
55.0
 40
55.0
 40
55.0
 40
56.0
 40
56.0
 40
56.0
 40
57.0
 40
57.0
 40
57.0
 40
58.0
 40
58.0
 40
58.0
 40
59.0
 40
59.0
 40
59.0
 40
60.0
 40
60.0
 40
60.0
 40
61.0
 40
61.0
 40
61.0
 40
62.0
 40
62.0
 40
62.0
 40
62.0
 10
-171.7321086040147
 20
121.0617884367672
 30
0.0
 10
-172.0961165700455
 20
120.9131329579991
 30
0.0
 10
-172.4609903770263
 20
120.7665694420984
 30
0.0
 10
-172.8268174065009
 20
120.6224010471174
 30
0.0
 10
-179.0708357432187
 20
118.1617023307618
 30
0.0
 10
-185.5925509855107
 20
116.3987606149574
 30
0.0
 10
-192.1255768516465
 20
116.5248571486278
 30
0.0
 10
-203.2042699389542
 20
116.7386914154014
 30
0.0
 10
-214.315489341482
 20
122.3848921382566
 30
0.0
 10
-222.5211472386245
 20
130.5046962766587
 30
0.0
 10
-228.0707997321535
 20
135.9962841357308
 30
0.0
 10
-232.2914220601848
 20
142.6193206151978
 30
0.0
 10
-234.1487582850692
 20
149.9157445000516
 30
0.0
 10
-235.3202596687921
 20
154.5179110667783
 30
0.0
 10
-235.551559736621
 20
159.3879756775921
 30
0.0
 10
-235.3549255516321
 20
164.1366266392076
 30
0.0
 10
-235.2186078940667
 20
167.4286532810684
 30
0.0
 10
-234.8766238894891
 20
170.662328198234
 30
0.0
 10
-234.8724530996644
 20
174.0189530838502
 30
0.0
 10
-234.8687306757163
 20
177.0147359891901
 30
0.0
 10
-235.1340946161122
 20
180.108455146168
 30
0.0
 10
-236.5108520226712
 20
182.6960956879749
 30
0.0
 10
-238.0092371054301
 20
185.5123376554517
 30
0.0
 10
-240.8240585744659
 20
187.7291336808649
 30
0.0
 10
-243.8924504060936
 20
188.8503869940539
 30
0.0
 10
-248.8751010980785
 20
190.6711497595078
 30
0.0
 10
-254.5264000826356
 20
189.6030387761447
 30
0.0
 10
-259.4300818638042
 20
187.388224833277
 30
0.0
 10
-266.137808114663
 20
184.3585899001139
 30
0.0
 10
-271.4466384949137
 20
179.1833140860366
 30
0.0
 10
-275.3515618718846
 20
173.167342694121
 30
0.0
 10
-280.3294088955754
 20
165.4984123728587
 30
0.0
 10
-283.0258823829803
 20
156.4633369729892
 30
0.0
 10
-284.0360105538819
 20
147.3769422853164
 30
0.0
 10
-285.4009031408152
 20
135.0993391965111
 30
0.0
 10
-283.6869318052918
 20
122.7280393409781
 30
0.0
 10
-280.8999534794457
 20
110.7400902100252
 30
0.0
 10
-278.5409595681081
 20
100.5930794682916
 30
0.0
 10
-275.4132087888641
 20
90.7207207139137
 30
0.0
 10
-272.2155047974545
 20
80.85214590272872
 30
0.0
 10
-270.2888666661894
 20
74.90626329960011
 30
0.0
 10
-268.3368345155636
 20
68.96175432212483
 30
0.0
 10
-266.4258908272659
 20
63.01579027977949
 30
0.0
 10
-264.3575856773173
 20
56.58019088169057
 30
0.0
 10
-262.3374146806369
 20
50.14288690982473
 30
0.0
 10
-260.8774714929933
 20
43.49219600916945
 30
0.0
 10
-258.6904747455294
 20
33.52945260160003
 30
0.0
 10
-257.7606335720632
 20
23.08786726112799
 30
0.0
 10
-259.4300818638042
 20
13.1221968947279
 30
0.0
 10
-260.7862113875523
 20
5.026863918751339
 30
0.0
 10
-263.8575262049349
 20
-2.754428479799088
 30
0.0
 10
-267.3908080044889
 20
-10.25789826325014
 30
0.0
 10
-271.4547884513088
 20
-18.88838861561883
 30
0.0
 10
-276.1299326714171
 20
-27.15133080047303
 30
0.0
 10
-281.6236760207517
 20
-34.84313043909032
 30
0.0
 10
-286.2988324749536
 20
-41.3888251390919
 30
0.0
 10
-291.5668143840921
 20
-47.52090122197308
 30
0.0
 10
-296.8214612142385
 20
-53.64362689143172
 30
0.0
 10
-302.0688424162769
 20
-59.75788663555653
 30
0.0
 10
-307.302925390797
 20
-65.86282180611423
 30
0.0
 10
-312.2604687703579
 20
-72.20308033264895
 30
0.0
 10
-319.9266058900396
 20
-82.00739015251592
 30
0.0
 10
-326.93147510822
 20
-92.37441064607223
 30
0.0
 10
-332.5537297905376
 20
-103.5372046689336
 30
0.0
 10
-338.0297570140067
 20
-114.409669082795
 30
0.0
 10
-342.1941544052947
 20
-126.0370512800461
 30
0.0
 10
-344.1329854576257
 20
-138.0047788969667
 30
0.0
 10
-345.8296936482411
 20
-148.477966566555
 30
0.0
 10
-345.8219885043101
 20
-159.2118021716742
 30
0.0
 10
-344.6154579095934
 20
-169.8209736479475
 30
0.0
 10
-343.5912755993021
 20
-178.8267342978834
 30
0.0
 10
-341.7032522806579
 20
-187.7426653677936
 30
0.0
 10
-338.3433437607263
 20
-196.0934444714504
 30
0.0
 10
-335.2111304136836
 20
-203.8783057590449
 30
0.0
 10
-330.7997663913373
 20
-211.1720183356868
 30
0.0
 10
-325.5579208270759
 20
-217.786316589318
 30
0.0
 10
-318.3788825417791
 20
-226.845015440908
 30
0.0
 10
-309.6421074557059
 20
-234.6293347421855
 30
0.0
 10
-299.9870472330635
 20
-240.9253687361706
 30
0.0
 10
-286.7040749220884
 20
-249.5871526383515
 30
0.0
 10
-271.6830692213435
 20
-255.4320668618599
 30
0.0
 10
-256.3235537337611
 20
-259.4848221773884
 30
0.0
 10
-244.8128178229295
 20
-262.522040127784
 30
0.0
 10
-233.1119642885164
 20
-264.552725901229
 30
0.0
 10
-221.3245179597293
 20
-265.7516595306859
 30
0.0
 10
-207.3207989615083
 20
-267.176016357103
 30
0.0
 10
-193.1948636797576
 20
-267.4264457616058
 30
0.0
 10
-179.1084418163287
 20
-267.1978395596735
 30
0.0
 10
-167.4301213462511
 20
-267.0083140354848
 30
0.0
 10
-155.7789592647983
 20
-266.4895374437548
 30
0.0
 10
-144.1294247257254
 20
-265.5106165195617
 30
0.0
 10
-125.1423732982217
 20
-263.9151174145308
 30
0.0
 10
-106.1596453184486
 20
-261.0972784218
 30
0.0
 10
-87.9144385311062
 20
-255.6283056824695
 30
0.0
 10
-72.10851428264917
 20
-250.8905041413713
 30
0.0
 10
-56.85608887629748
 20
-244.1630655917807
 30
0.0
 10
-42.80355540260962
 20
-235.381629201143
 30
0.0
 10
-29.92847002523611
 20
-227.3359808148837
 30
0.0
 10
-18.06062498961405
 20
-217.5661192465419
 30
0.0
 10
-8.548205399893908
 20
-205.7346966898669
 30
0.0
 10
-1.948468756557037
 20
-197.5260309288991
 30
0.0
 10
3.517457120128363
 20
-188.3250093925668
 30
0.0
 10
7.139372096564975
 20
-178.498116252075
 30
0.0
 10
11.88861368180797
 20
-165.6125875027308
 30
0.0
 10
13.46729870400541
 20
-151.6509472608127
 30
0.0
 10
13.41145851872067
 20
-137.7637202782941
 30
0.0
 10
13.35737655465177
 20
-124.3137557616355
 30
0.0
 10
11.7700803941046
 20
-110.9335922276688
 30
0.0
 10
7.863066911160132
 20
-98.23447692992957
 30
0.0
 10
5.33478035334721
 20
-90.01669046885088
 30
0.0
 10
1.835094381962473
 20
-82.08409817815584
 30
0.0
 10
-2.02754903739329
 20
-74.37234257235676
 30
0.0
 10
-5.785218214117253
 20
-66.87016771636873
 30
0.0
 10
-9.886384875656166
 20
-59.57698938666967
 30
0.0
 10
-13.84805479382097
 20
-52.19740003979246
 30
0.0
 10
-18.69286624046318
 20
-43.17274132823793
 30
0.0
 10
-23.32905513567717
 20
-34.01885173688549
 30
0.0
 10
-27.11597790615074
 20
-24.4787647948523
 30
0.0
 10
-29.96404236804263
 20
-17.30386733066016
 30
0.0
 10
-32.33174273960209
 20
-9.910527927429069
 30
0.0
 10
-33.62931441764536
 20
-2.303822262291212
 30
0.0
 10
-35.25319822000998
 20
7.215810701338023
 30
0.0
 10
-35.20104659828452
 20
17.06961787730995
 30
0.0
 10
-33.62931441764536
 20
26.62001243071373
 30
0.0
 10
-32.10867962117758
 20
35.85992140299106
 30
0.0
 10
-29.16566204290937
 20
44.81582510316223
 30
0.0
 10
-25.42733818761572
 20
53.37453806136304
 30
0.0
 10
-22.18677833311974
 20
60.79364424159034
 30
0.0
 10
-18.34860461901842
 20
67.9142909488251
 30
0.0
 10
-14.57174960841645
 20
75.06741017922803
 30
0.0
 10
-10.59344506292963
 20
82.60206180573628
 30
0.0
 10
-6.683174890893862
 20
90.17274237026835
 30
0.0
 10
-3.23374403066726
 20
97.96541931495837
 30
0.0
 10
0.9650894759394825
 20
107.4510864836499
 30
0.0
 10
4.481094011736442
 20
117.2656873086122
 30
0.0
 10
6.898122007225728
 20
127.3713088151091
 30
0.0
 10
9.049528340947019
 20
136.3663631363011
 30
0.0
 10
10.33023186476561
 20
145.5919888262693
 30
0.0
 10
10.27540144428966
 20
154.8489322640289
 30
0.0
 10
10.22117009416671
 20
164.0047354893446
 30
0.0
 10
8.860429126179621
 20
173.1911758533667
 30
0.0
 10
5.691954740663209
 20
181.8445165133502
 30
0.0
 10
3.074816979294032
 20
188.9921155934492
 30
0.0
 10
-0.7756730953186496
 20
195.7759996773051
 30
0.0
 10
-6.128551015764474
 20
201.1270677728354
 30
0.0
 10
-8.537294116436458
 20
203.5349964698643
 30
0.0
 10
-11.25025762992672
 20
205.6527924473899
 30
0.0
 10
-14.33052724578834
 20
207.1528621150113
 30
0.0
 10
-16.22587219545197
 20
208.075881792909
 30
0.0
 10
-18.26028514373105
 20
208.7650203535149
 30
0.0
 10
-20.36139130531591
 20
208.8400851551208
 30
0.0
 10
-22.8102469068659
 20
208.9275737662401
 30
0.0
 10
-25.34969913035654
 20
208.180899417888
 30
0.0
 10
-27.35720026877886
 20
206.7585529572115
 30
0.0
 10
-29.46968433454639
 20
205.2618244240753
 30
0.0
 10
-30.99312542351899
 20
203.016906962385
 30
0.0
 10
-32.00652563143972
 20
200.6449973581384
 30
0.0
 10
-34.36426449739321
 20
195.1266015489126
 30
0.0
 10
-33.96120674419774
 20
188.9208108839964
 30
0.0
 10
-34.2919550204665
 20
182.9223271335972
 30
0.0
 10
-34.49172043712059
 20
179.299361598571
 30
0.0
 10
-34.95917250073887
 20
175.7520199895024
 30
0.0
 10
-35.30533848388126
 20
172.1772309005681
 30
0.0
 10
-35.4676304651047
 20
170.5012730307849
 30
0.0
 10
-35.60326390955143
 20
168.8192822374498
 30
0.0
 10
-35.80042658814132
 20
167.1415639594981
 30
0.0
 10
-36.57971701167616
 20
160.510340460474
 30
0.0
 10
-38.32024507572854
 20
153.9458641372198
 30
0.0
 10
-41.10756810636325
 20
147.8590127000106
 30
0.0
 10
-43.67054622105918
 20
142.26207727146
 30
0.0
 10
-47.11859269407422
 20
137.0689751505578
 30
0.0
 10
-51.48068423359453
 20
132.6739897314646
 30
0.0
 10
-58.97734003458573
 20
125.1208027708504
 30
0.0
 10
-69.17368150496074
 20
119.92490026078
 30
0.0
 10
-79.70514245007635
 20
118.4531075923089
 30
0.0
 10
-85.58909605539888
 20
117.6308133424347
 30
0.0
 10
-91.57765669821327
 20
117.9709943504534
 30
0.0
 10
-97.34792423912506
 20
119.1762054105789
 30
0.0
 10
-101.2136592536378
 20
119.9836249213684
 30
0.0
 10
-104.9814199444161
 20
121.1792872745855
 30
0.0
 10
-108.6859575435847
 20
122.5506514908011
 30
0.0
 10
-112.0602925610023
 20
123.7997796674055
 30
0.0
 10
-115.3821729140234
 20
125.1946834146557
 30
0.0
 10
-118.5490131440406
 20
126.8892227928626
 30
0.0
 10
-118.6269006689941
 20
126.9308995016693
 30
0.0
 10
-118.7049694219518
 20
126.9723414714283
 30
0.0
 10
-118.7832165782073
 20
127.0135477730799
 30
0.0
  0
ENDBLK
  5
21A
330
217
100
AcDbEntity
  8
0
100
AcDbBlockEnd
  0
BLOCK
  5
21E
330
21C
100
AcDbEntity
  8
0
100
AcDbBlockBegin
  2
block 84
 70
     0
 10
0.0
 20
0.0
 30
0.0
  3
block 84
  1

  0
POLYLINE
  5
220
330
21C
100
AcDbEntity
  8
0
 62
     3
370
    25
100
AcDb2dPolyline
 66
     1
 10
0.0
 20
0.0
 30
0.0
  0
VERTEX
  5
221
330
220
100
AcDbEntity
  8
0
 62
     3
370
    25
100
AcDbVertex
100
AcDb2dVertex
 10
-145.2095790006319
 20
-265.6000676395486
 30
0.0
  0
VERTEX
  5
222
330
220
100
AcDbEntity
  8
0
 62
     3
370
    25
100
AcDbVertex
100
AcDb2dVertex
 10
-145.2073282394726
 20
45.91110119076301
 30
0.0
  0
SEQEND
  5
223
330
220
100
AcDbEntity
  8
0
 62
     3
370
    25
  0
ENDBLK
  5
21F
330
21C
100
AcDbEntity
  8
0
100
AcDbBlockEnd
  0
BLOCK
  5
226
330
224
100
AcDbEntity
  8
0
100
AcDbBlockBegin
  2
block 85
 70
     0
 10
0.0
 20
0.0
 30
0.0
  3
block 85
  1

  0
POLYLINE
  5
228
330
224
100
AcDbEntity
  8
0
 62
     1
370
    25
100
AcDb2dPolyline
 66
     1
 10
0.0
 20
0.0
 30
0.0
  0
VERTEX
  5
229
330
228
100
AcDbEntity
  8
0
 62
     1
370
    25
100
AcDbVertex
100
AcDb2dVertex
 10
-118.7832165782073
 20
127.0135477730799
 30
0.0
  0
VERTEX
  5
22A
330
228
100
AcDbEntity
  8
0
 62
     1
370
    25
100
AcDbVertex
100
AcDb2dVertex
 10
-117.6035655052576
 20
58.01426839580859
 30
0.0
  0
SEQEND
  5
22B
330
228
100
AcDbEntity
  8
0
 62
     1
370
    25
  0
ENDBLK
  5
227
330
224
100
AcDbEntity
  8
0
100
AcDbBlockEnd
  0
BLOCK
  5
22E
330
22C
100
AcDbEntity
  8
0
100
AcDbBlockBegin
  2
block 86
 70
     0
 10
0.0
 20
0.0
 30
0.0
  3
block 86
  1

  0
POLYLINE
  5
230
330
22C
100
AcDbEntity
  8
0
 62
     1
370
    25
100
AcDb2dPolyline
 66
     1
 10
0.0
 20
0.0
 30
0.0
  0
VERTEX
  5
231
330
230
100
AcDbEntity
  8
0
 62
     1
370
    25
100
AcDbVertex
100
AcDb2dVertex
 10
-171.7321086040147
 20
121.0617884367672
 30
0.0
  0
VERTEX
  5
232
330
230
100
AcDbEntity
  8
0
 62
     1
370
    25
100
AcDbVertex
100
AcDb2dVertex
 10
-173.0099358285377
 20
46.38318297505698
 30
0.0
  0
SEQEND
  5
233
330
230
100
AcDbEntity
  8
0
 62
     1
370
    25
  0
ENDBLK
  5
22F
330
22C
100
AcDbEntity
  8
0
100
AcDbBlockEnd
  0
BLOCK
  5
236
330
234
100
AcDbEntity
  8
0
100
AcDbBlockBegin
  2
block 87
 70
     0
 10
0.0
 20
0.0
 30
0.0
  3
block 87
  1

  0
POLYLINE
  5
238
330
234
100
AcDbEntity
  8
0
 62
     1
370
    25
100
AcDb2dPolyline
 66
     1
 10
0.0
 20
0.0
 30
0.0
  0
VERTEX
  5
239
330
238
100
AcDbEntity
  8
0
 62
     1
370
    25
100
AcDbVertex
100
AcDb2dVertex
 10
-165.4578997262614
 20
40.48497691460925
 30
0.0
  0
VERTEX
  5
23A
330
238
100
AcDbEntity
  8
0
 62
     1
370
    25
100
AcDbVertex
100
AcDb2dVertex
 10
-122.0497745486134
 20
52.11614900090953
 30
0.0
  0
SEQEND
  5
23B
330
238
100
AcDbEntity
  8
0
 62
     1
370
    25
  0
ENDBLK
  5
237
330
234
100
AcDbEntity
  8
0
100
AcDbBlockEnd
  0
BLOCK
  5
23E
330
23C
100
AcDbEntity
  8
0
100
AcDbBlockBegin
  2
block 88
 70
     0
 10
0.0
 20
0.0
 30
0.0
  3
block 88
  1

  0
SPLINE
  5
240
330
23C
100
AcDbEntity
  8
0
 62
     1
370
    25
100
AcDbSpline
210
0.0
220
0.0
230
1.0
 70
     8
 71
     3
 72
    11
 73
     7
 74
     0
 42
0.0000000001
 43
0.0000000001
 12
1.0
 22
0.0
 32
0.0
 13
1.0
 23
0.0
 33
0.0
 40
0.0
 40
0.0
 40
0.0
 40
0.0
 40
1.0
 40
1.0
 40
1.0
 40
2.0
 40
2.0
 40
2.0
 40
2.0
 10
-173.0099358285377
 20
46.38318297505698
 30
0.0
 10
-173.0666284671195
 20
43.06995947505375
 30
0.0
 10
-170.4266885995931
 20
40.33810267926416
 30
0.0
 10
-167.1134650995899
 20
40.28141004068237
 30
0.0
 10
-166.5548236203268
 20
40.27185111431384
 30
0.0
 10
-165.9975849477971
 20
40.34036869533158
 30
0.0
 10
-165.4578997262614
 20
40.48497691460925
 30
0.0
  0
ENDBLK
  5
23F
330
23C
100
AcDbEntity
  8
0
100
AcDbBlockEnd
  0
BLOCK
  5
243
330
241
100
AcDbEntity
  8
0
100
AcDbBlockBegin
  2
block 89
 70
     0
 10
0.0
 20
0.0
 30
0.0
  3
block 89
  1

  0
SPLINE
  5
245
330
241
100
AcDbEntity
  8
0
 62
     1
370
    25
100
AcDbSpline
210
0.0
220
0.0
230
1.0
 70
     8
 71
     3
 72
     8
 73
     4
 74
     0
 42
0.0000000001
 43
0.0000000001
 12
1.0
 22
0.0
 32
0.0
 13
1.0
 23
0.0
 33
0.0
 40
0.0
 40
0.0
 40
0.0
 40
0.0
 40
1.0
 40
1.0
 40
1.0
 40
1.0
 10
-122.0497745486134
 20
52.11614900090953
 30
0.0
 10
-119.3897894864171
 20
52.82888985020406
 30
0.0
 10
-117.5564915196325
 20
55.26085159313629
 30
0.0
 10
-117.6035655052576
 20
58.01426839580859
 30
0.0
  0
ENDBLK
  5
244
330
241
100
AcDbEntity
  8
0
100
AcDbBlockEnd
  0
BLOCK
  5
248
330
246
100
AcDbEntity
  8
0
100
AcDbBlockBegin
  2
block 90
 70
     0
 10
0.0
 20
0.0
 30
0.0
  3
block 90
  1

  0
SPLINE
  5
24A
330
246
100
AcDbEntity
  8
0
 62
     1
370
    25
100
AcDbSpline
210
0.0
220
0.0
230
1.0
 70
     8
 71
     3
 72
     8
 73
     4
 74
     0
 42
0.0000000001
 43
0.0000000001
 12
1.0
 22
0.0
 32
0.0
 13
1.0
 23
0.0
 33
0.0
 40
0.0
 40
0.0
 40
0.0
 40
0.0
 40
1.0
 40
1.0
 40
1.0
 40
1.0
 10
326.176038743326
 20
84.57383442393817
 30
0.0
 10
321.6122255146099
 20
79.87639294020647
 30
0.0
 10
320.2919515115344
 20
72.90880236494743
 30
0.0
 10
322.8208787181163
 20
66.86737249582706
 30
0.0
  0
ENDBLK
  5
249
330
246
100
AcDbEntity
  8
0
100
AcDbBlockEnd
  0
BLOCK
  5
24D
330
24B
100
AcDbEntity
  8
0
100
AcDbBlockBegin
  2
block 91
 70
     0
 10
0.0
 20
0.0
 30
0.0
  3
block 91
  1

  0
SPLINE
  5
24F
330
24B
100
AcDbEntity
  8
0
 62
     1
370
    25
100
AcDbSpline
210
0.0
220
0.0
230
1.0
 70
     8
 71
     3
 72
    14
 73
    10
 74
     0
 42
0.0000000001
 43
0.0000000001
 12
1.0
 22
0.0
 32
0.0
 13
1.0
 23
0.0
 33
0.0
 40
0.0
 40
0.0
 40
0.0
 40
0.0
 40
1.0
 40
1.0
 40
1.0
 40
2.0
 40
2.0
 40
2.0
 40
3.0
 40
3.0
 40
3.0
 40
3.0
 10
361.3760770994859
 20
73.92086300632182
 30
0.0
 10
367.9123260055997
 20
80.151091210244
 30
0.0
 10
368.1604048006064
 20
90.5003657372893
 30
0.0
 10
361.9301765966842
 20
97.03661464340311
 30
0.0
 10
355.6999483927614
 20
103.5728635495163
 30
0.0
 10
345.3506738657167
 20
103.8209423445229
 30
0.0
 10
338.8144249596029
 20
97.59071414060077
 30
0.0
 10
338.4781323534171
 20
97.27016642127099
 30
0.0
 10
338.1556552254175
 20
96.93543058881336
 30
0.0
 10
337.8478715502117
 20
96.58741799332351
 30
0.0
  0
ENDBLK
  5
24E
330
24B
100
AcDbEntity
  8
0
100
AcDbBlockEnd
  0
BLOCK
  5
252
330
250
100
AcDbEntity
  8
0
100
AcDbBlockBegin
  2
block 92
 70
     0
 10
0.0
 20
0.0
 30
0.0
  3
block 92
  1

  0
POLYLINE
  5
254
330
250
100
AcDbEntity
  8
0
 62
     1
370
    25
100
AcDb2dPolyline
 66
     1
 10
0.0
 20
0.0
 30
0.0
  0
VERTEX
  5
255
330
254
100
AcDbEntity
  8
0
 62
     1
370
    25
100
AcDbVertex
100
AcDb2dVertex
 10
337.8478715502117
 20
96.58741799332351
 30
0.0
  0
VERTEX
  5
256
330
254
100
AcDbEntity
  8
0
 62
     1
370
    25
100
AcDbVertex
100
AcDb2dVertex
 10
326.1760387433254
 20
84.57383442393817
 30
0.0
  0
SEQEND
  5
257
330
254
100
AcDbEntity
  8
0
 62
     1
370
    25
  0
ENDBLK
  5
253
330
250
100
AcDbEntity
  8
0
100
AcDbBlockEnd
  0
BLOCK
  5
25A
330
258
100
AcDbEntity
  8
0
100
AcDbBlockBegin
  2
block 93
 70
     0
 10
0.0
 20
0.0
 30
0.0
  3
block 93
  1

  0
POLYLINE
  5
25C
330
258
100
AcDbEntity
  8
0
 62
     1
370
    25
100
AcDb2dPolyline
 66
     1
 10
0.0
 20
0.0
 30
0.0
  0
VERTEX
  5
25D
330
25C
100
AcDbEntity
  8
0
 62
     1
370
    25
100
AcDbVertex
100
AcDb2dVertex
 10
361.3760770994859
 20
73.92086300632182
 30
0.0
  0
VERTEX
  5
25E
330
25C
100
AcDbEntity
  8
0
 62
     1
370
    25
100
AcDbVertex
100
AcDb2dVertex
 10
349.6498415245386
 20
61.80829601569774
 30
0.0
  0
SEQEND
  5
25F
330
25C
100
AcDbEntity
  8
0
 62
     1
370
    25
  0
ENDBLK
  5
25B
330
258
100
AcDbEntity
  8
0
100
AcDbBlockEnd
  0
BLOCK
  5
262
330
260
100
AcDbEntity
  8
0
100
AcDbBlockBegin
  2
block 94
 70
     0
 10
0.0
 20
0.0
 30
0.0
  3
block 94
  1

  0
SPLINE
  5
264
330
260
100
AcDbEntity
  8
0
 62
     1
370
    25
100
AcDbSpline
210
0.0
220
0.0
230
1.0
 70
     8
 71
     3
 72
     8
 73
     4
 74
     0
 42
0.0000000001
 43
0.0000000001
 12
1.0
 22
0.0
 32
0.0
 13
1.0
 23
0.0
 33
0.0
 40
0.0
 40
0.0
 40
0.0
 40
0.0
 40
1.0
 40
1.0
 40
1.0
 40
1.0
 10
323.0078491776166
 20
62.74421581952669
 30
0.0
 10
323.4350804392661
 20
64.09746585160349
 30
0.0
 10
323.3688348340943
 20
65.55834373556014
 30
0.0
 10
322.8208787181163
 20
66.86737249582706
 30
0.0
  0
ENDBLK
  5
263
330
260
100
AcDbEntity
  8
0
100
AcDbBlockEnd
  0
BLOCK
  5
267
330
265
100
AcDbEntity
  8
0
100
AcDbBlockBegin
  2
block 95
 70
     0
 10
0.0
 20
0.0
 30
0.0
  3
block 95
  1

  0
SPLINE
  5
269
330
265
100
AcDbEntity
  8
0
 62
     1
370
    25
100
AcDbSpline
210
0.0
220
0.0
230
1.0
 70
     8
 71
     3
 72
     8
 73
     4
 74
     0
 42
0.0000000001
 43
0.0000000001
 12
1.0
 22
0.0
 32
0.0
 13
1.0
 23
0.0
 33
0.0
 40
0.0
 40
0.0
 40
0.0
 40
0.0
 40
1.0
 40
1.0
 40
1.0
 40
1.0
 10
323.0078491776166
 20
62.74421581952734
 30
0.0
 10
310.8683265859223
 20
24.29241977541643
 30
0.0
 10
314.1131144549991
 20
-17.36871541253057
 30
0.0
 10
332.0597862082289
 20
-53.47724073209939
 30
0.0
  0
ENDBLK
  5
268
330
265
100
AcDbEntity
  8
0
100
AcDbBlockEnd
  0
BLOCK
  5
26C
330
26A
100
AcDbEntity
  8
0
100
AcDbBlockBegin
  2
block 96
 70
     0
 10
0.0
 20
0.0
 30
0.0
  3
block 96
  1

  0
SPLINE
  5
26E
330
26A
100
AcDbEntity
  8
0
 62
     1
370
    25
100
AcDbSpline
210
0.0
220
0.0
230
1.0
 70
     8
 71
     3
 72
     8
 73
     4
 74
     0
 42
0.0000000001
 43
0.0000000001
 12
1.0
 22
0.0
 32
0.0
 13
1.0
 23
0.0
 33
0.0
 40
0.0
 40
0.0
 40
0.0
 40
0.0
 40
1.0
 40
1.0
 40
1.0
 40
1.0
 10
335.6871632237388
 20
52.68868448288749
 30
0.0
 10
326.655887841592
 20
19.38221838834652
 30
0.0
 10
330.1741071686765
 20
-16.08139697747941
 30
0.0
 10
345.5733715659406
 20
-46.96419598854957
 30
0.0
  0
ENDBLK
  5
26D
330
26A
100
AcDbEntity
  8
0
100
AcDbBlockEnd
  0
BLOCK
  5
271
330
26F
100
AcDbEntity
  8
0
100
AcDbBlockBegin
  2
block 97
 70
     0
 10
0.0
 20
0.0
 30
0.0
  3
block 97
  1

  0
SPLINE
  5
273
330
26F
100
AcDbEntity
  8
0
 62
     1
370
    25
100
AcDbSpline
210
0.0
220
0.0
230
1.0
 70
     8
 71
     3
 72
     8
 73
     4
 74
     0
 42
0.0000000001
 43
0.0000000001
 12
1.0
 22
0.0
 32
0.0
 13
1.0
 23
0.0
 33
0.0
 40
0.0
 40
0.0
 40
0.0
 40
0.0
 40
1.0
 40
1.0
 40
1.0
 40
1.0
 10
331.8707324591539
 20
-59.16883302821618
 30
0.0
 10
328.3450632725352
 20
-65.2184679097128
 30
0.0
 10
328.5747111926194
 20
-72.74833866047496
 30
0.0
 10
332.4624914243649
 20
-78.57187626939913
 30
0.0
  0
ENDBLK
  5
272
330
26F
100
AcDbEntity
  8
0
100
AcDbBlockEnd
  0
BLOCK
  5
276
330
274
100
AcDbEntity
  8
0
100
AcDbBlockBegin
  2
block 98
 70
     0
 10
0.0
 20
0.0
 30
0.0
  3
block 98
  1

  0
SPLINE
  5
278
330
274
100
AcDbEntity
  8
0
 62
     1
370
    25
100
AcDbSpline
210
0.0
220
0.0
230
1.0
 70
     8
 71
     3
 72
     8
 73
     4
 74
     0
 42
0.0000000001
 43
0.0000000001
 12
1.0
 22
0.0
 32
0.0
 13
1.0
 23
0.0
 33
0.0
 40
0.0
 40
0.0
 40
0.0
 40
0.0
 40
1.0
 40
1.0
 40
1.0
 40
1.0
 10
340.8588842877822
 20
-99.63482692375385
 30
0.0
 10
339.5198587773994
 20
-92.11639889667248
 30
0.0
 10
336.6629508661612
 20
-84.94964153582765
 30
0.0
 10
332.4624914243643
 20
-78.57187626939785
 30
0.0
  0
ENDBLK
  5
277
330
274
100
AcDbEntity
  8
0
100
AcDbBlockEnd
  0
BLOCK
  5
27B
330
279
100
AcDbEntity
  8
0
100
AcDbBlockBegin
  2
block 99
 70
     0
 10
0.0
 20
0.0
 30
0.0
  3
block 99
  1

  0
SPLINE
  5
27D
330
279
100
AcDbEntity
  8
0
 62
     1
370
    25
100
AcDbSpline
210
0.0
220
0.0
230
1.0
 70
     8
 71
     3
 72
     8
 73
     4
 74
     0
 42
0.0000000001
 43
0.0000000001
 12
1.0
 22
0.0
 32
0.0
 13
1.0
 23
0.0
 33
0.0
 40
0.0
 40
0.0
 40
0.0
 40
0.0
 40
1.0
 40
1.0
 40
1.0
 40
1.0
 10
335.6752636737424
 20
-133.9632493572528
 30
0.0
 10
340.9967503815577
 20
-123.3587094205027
 30
0.0
 10
342.8119140304177
 20
-111.3378249531461
 30
0.0
 10
340.8588842877829
 20
-99.63482692375385
 30
0.0
  0
ENDBLK
  5
27C
330
279
100
AcDbEntity
  8
0
100
AcDbBlockEnd
  0
BLOCK
  5
280
330
27E
100
AcDbEntity
  8
0
100
AcDbBlockBegin
  2
block 100
 70
     0
 10
0.0
 20
0.0
 30
0.0
  3
block 100
  1

  0
SPLINE
  5
282
330
27E
100
AcDbEntity
  8
0
 62
     1
370
    25
100
AcDbSpline
210
0.0
220
0.0
230
1.0
 70
     8
 71
     3
 72
    11
 73
     7
 74
     0
 42
0.0000000001
 43
0.0000000001
 12
1.0
 22
0.0
 32
0.0
 13
1.0
 23
0.0
 33
0.0
 40
0.0
 40
0.0
 40
0.0
 40
0.0
 40
1.0
 40
1.0
 40
1.0
 40
2.0
 40
2.0
 40
2.0
 40
2.0
 10
335.6752636737424
 20
-133.9632493572516
 30
0.0
 10
332.0399309386967
 20
-143.5139979211498
 30
0.0
 10
336.8353229506629
 20
-154.2034288520545
 30
0.0
 10
346.3860715145605
 20
-157.8387615871003
 30
0.0
 10
355.2442721520173
 20
-161.2104875346017
 30
0.0
 10
365.2180053140021
 20
-157.3433617989857
 30
0.0
 10
369.4879380229277
 20
-148.8814513137738
 30
0.0
  0
ENDBLK
  5
281
330
27E
100
AcDbEntity
  8
0
100
AcDbBlockEnd
  0
BLOCK
  5
285
330
283
100
AcDbEntity
  8
0
100
AcDbBlockBegin
  2
block 101
 70
     0
 10
0.0
 20
0.0
 30
0.0
  3
block 101
  1

  0
SPLINE
  5
287
330
283
100
AcDbEntity
  8
0
 62
     1
370
    25
100
AcDbSpline
210
0.0
220
0.0
230
1.0
 70
     8
 71
     3
 72
     8
 73
     4
 74
     0
 42
0.0000000001
 43
0.0000000001
 12
1.0
 22
0.0
 32
0.0
 13
1.0
 23
0.0
 33
0.0
 40
0.0
 40
0.0
 40
0.0
 40
0.0
 40
1.0
 40
1.0
 40
1.0
 40
1.0
 10
362.0242447467238
 20
-56.96012134462416
 30
0.0
 10
359.0783608711093
 20
-53.27145638355406
 30
0.0
 10
354.8227022581021
 20
-50.86182954709117
 30
0.0
 10
350.1440788630289
 20
-50.23336782932009
 30
0.0
  0
ENDBLK
  5
286
330
283
100
AcDbEntity
  8
0
100
AcDbBlockEnd
  0
BLOCK
  5
28A
330
288
100
AcDbEntity
  8
0
100
AcDbBlockBegin
  2
block 102
 70
     0
 10
0.0
 20
0.0
 30
0.0
  3
block 102
  1

  0
SPLINE
  5
28C
330
288
100
AcDbEntity
  8
0
 62
     1
370
    25
100
AcDbSpline
210
0.0
220
0.0
230
1.0
 70
     8
 71
     3
 72
     8
 73
     4
 74
     0
 42
0.0000000001
 43
0.0000000001
 12
1.0
 22
0.0
 32
0.0
 13
1.0
 23
0.0
 33
0.0
 40
0.0
 40
0.0
 40
0.0
 40
0.0
 40
1.0
 40
1.0
 40
1.0
 40
1.0
 10
331.8707324591546
 20
-59.16883302821618
 30
0.0
 10
332.887426510026
 20
-57.42430526103147
 30
0.0
 10
332.9584733892896
 20
-55.28539041455226
 30
0.0
 10
332.0597862082289
 20
-53.47724073209939
 30
0.0
  0
ENDBLK
  5
28B
330
288
100
AcDbEntity
  8
0
100
AcDbBlockEnd
  0
BLOCK
  5
28F
330
28D
100
AcDbEntity
  8
0
100
AcDbBlockBegin
  2
block 103
 70
     0
 10
0.0
 20
0.0
 30
0.0
  3
block 103
  1

  0
SPLINE
  5
291
330
28D
100
AcDbEntity
  8
0
 62
     1
370
    25
100
AcDbSpline
210
0.0
220
0.0
230
1.0
 70
     8
 71
     3
 72
     8
 73
     4
 74
     0
 42
0.0000000001
 43
0.0000000001
 12
1.0
 22
0.0
 32
0.0
 13
1.0
 23
0.0
 33
0.0
 40
0.0
 40
0.0
 40
0.0
 40
0.0
 40
1.0
 40
1.0
 40
1.0
 40
1.0
 10
345.5733715659406
 20
-46.96419598854957
 30
0.0
 10
346.4609145915731
 20
-48.74413898888738
 30
0.0
 10
348.1728315737022
 20
-49.96857766499368
 30
0.0
 10
350.1440788630289
 20
-50.23336782932009
 30
0.0
  0
ENDBLK
  5
290
330
28D
100
AcDbEntity
  8
0
100
AcDbBlockEnd
  0
BLOCK
  5
294
330
292
100
AcDbEntity
  8
0
100
AcDbBlockBegin
  2
block 104
 70
     0
 10
0.0
 20
0.0
 30
0.0
  3
block 104
  1

  0
SPLINE
  5
296
330
292
100
AcDbEntity
  8
0
 62
     1
370
    25
100
AcDbSpline
210
0.0
220
0.0
230
1.0
 70
     8
 71
     3
 72
     8
 73
     4
 74
     0
 42
0.0000000001
 43
0.0000000001
 12
1.0
 22
0.0
 32
0.0
 13
1.0
 23
0.0
 33
0.0
 40
0.0
 40
0.0
 40
0.0
 40
0.0
 40
1.0
 40
1.0
 40
1.0
 40
1.0
 10
340.5182576424205
 20
57.04118242794866
 30
0.0
 10
343.9962562150337
 20
57.60479885717358
 30
0.0
 10
347.1991399515802
 20
59.27685386729838
 30
0.0
 10
349.6498415245386
 20
61.80829601569774
 30
0.0
  0
ENDBLK
  5
295
330
292
100
AcDbEntity
  8
0
100
AcDbBlockEnd
  0
BLOCK
  5
299
330
297
100
AcDbEntity
  8
0
100
AcDbBlockBegin
  2
block 105
 70
     0
 10
0.0
 20
0.0
 30
0.0
  3
block 105
  1

  0
SPLINE
  5
29B
330
297
100
AcDbEntity
  8
0
 62
     1
370
    25
100
AcDbSpline
210
0.0
220
0.0
230
1.0
 70
     8
 71
     3
 72
     8
 73
     4
 74
     0
 42
0.0000000001
 43
0.0000000001
 12
1.0
 22
0.0
 32
0.0
 13
1.0
 23
0.0
 33
0.0
 40
0.0
 40
0.0
 40
0.0
 40
0.0
 40
1.0
 40
1.0
 40
1.0
 40
1.0
 10
340.5182576424205
 20
57.04118242794866
 30
0.0
 10
338.1931587916482
 20
56.66439563965431
 30
0.0
 10
336.3035943225058
 20
54.96202248023178
 30
0.0
 10
335.6871632237388
 20
52.68868448288749
 30
0.0
  0
ENDBLK
  5
29A
330
297
100
AcDbEntity
  8
0
100
AcDbBlockEnd
  0
BLOCK
  5
29E
330
29C
100
AcDbEntity
  8
0
100
AcDbBlockBegin
  2
block 106
 70
     0
 10
0.0
 20
0.0
 30
0.0
  3
block 106
  1

  0
SPLINE
  5
2A0
330
29C
100
AcDbEntity
  8
0
 62
     1
370
    25
100
AcDbSpline
210
0.0
220
0.0
230
1.0
 70
     8
 71
     3
 72
     8
 73
     4
 74
     0
 42
0.0000000001
 43
0.0000000001
 12
1.0
 22
0.0
 32
0.0
 13
1.0
 23
0.0
 33
0.0
 40
0.0
 40
0.0
 40
0.0
 40
0.0
 40
1.0
 40
1.0
 40
1.0
 40
1.0
 10
369.487938022927
 20
-148.8814513137738
 30
0.0
 10
384.9181201383657
 20
-119.362146278143
 30
0.0
 10
382.0146338298292
 20
-83.60339881208768
 30
0.0
 10
362.0242447467238
 20
-56.96012134462416
 30
0.0
  0
ENDBLK
  5
29F
330
29C
100
AcDbEntity
  8
0
100
AcDbBlockEnd
  0
BLOCK
  5
2A3
330
2A1
100
AcDbEntity
  8
0
100
AcDbBlockBegin
  2
block 107
 70
     0
 10
0.0
 20
0.0
 30
0.0
  3
block 107
  1

  0
POLYLINE
  5
2A5
330
2A1
100
AcDbEntity
  8
0
 62
     3
370
    25
100
AcDb2dPolyline
 66
     1
 10
0.0
 20
0.0
 30
0.0
  0
VERTEX
  5
2A6
330
2A5
100
AcDbEntity
  8
0
 62
     3
370
    25
100
AcDbVertex
100
AcDb2dVertex
 10
253.0314667970844
 20
-16.74244172487058
 30
0.0
  0
VERTEX
  5
2A7
330
2A5
100
AcDbEntity
  8
0
 62
     3
370
    25
100
AcDbVertex
100
AcDb2dVertex
 10
253.0318801817553
 20
40.47106655487607
 30
0.0
  0
SEQEND
  5
2A8
330
2A5
100
AcDbEntity
  8
0
 62
     3
370
    25
  0
ENDBLK
  5
2A4
330
2A1
100
AcDbEntity
  8
0
100
AcDbBlockEnd
  0
BLOCK
  5
2AB
330
2A9
100
AcDbEntity
  8
0
100
AcDbBlockBegin
  2
block 108
 70
     0
 10
0.0
 20
0.0
 30
0.0
  3
block 108
  1

  0
POLYLINE
  5
2AD
330
2A9
100
AcDbEntity
  8
0
 62
     3
370
    25
100
AcDb2dPolyline
 66
     1
 10
0.0
 20
0.0
 30
0.0
  0
VERTEX
  5
2AE
330
2AD
100
AcDbEntity
  8
0
 62
     3
370
    25
100
AcDbVertex
100
AcDb2dVertex
 10
253.032186869703
 20
82.91747212847771
 30
0.0
  0
VERTEX
  5
2AF
330
2AD
100
AcDbEntity
  8
0
 62
     3
370
    25
100
AcDbVertex
100
AcDb2dVertex
 10
253.032536484559
 20
131.3050728883677
 30
0.0
  0
SEQEND
  5
2B0
330
2AD
100
AcDbEntity
  8
0
 62
     3
370
    25
  0
ENDBLK
  5
2AC
330
2A9
100
AcDbEntity
  8
0
100
AcDbBlockEnd
  0
ENDSEC
  0
SECTION
  2
ENTITIES
  0
INSERT
  5
41
330
1F
100
AcDbEntity
  8
0
100
AcDbBlockReference
  2
block 2
 10
0.0
 20
0.0
 30
0.0
  0
INSERT
  5
49
330
1F
100
AcDbEntity
  8
0
100
AcDbBlockReference
  2
block 3
 10
0.0
 20
0.0
 30
0.0
  0
INSERT
  5
51
330
1F
100
AcDbEntity
  8
0
100
AcDbBlockReference
  2
block 4
 10
0.0
 20
0.0
 30
0.0
  0
INSERT
  5
59
330
1F
100
AcDbEntity
  8
0
100
AcDbBlockReference
  2
block 5
 10
0.0
 20
0.0
 30
0.0
  0
INSERT
  5
5E
330
1F
100
AcDbEntity
  8
0
100
AcDbBlockReference
  2
block 6
 10
0.0
 20
0.0
 30
0.0
  0
INSERT
  5
63
330
1F
100
AcDbEntity
  8
0
100
AcDbBlockReference
  2
block 7
 10
0.0
 20
0.0
 30
0.0
  0
INSERT
  5
68
330
1F
100
AcDbEntity
  8
0
100
AcDbBlockReference
  2
block 8
 10
0.0
 20
0.0
 30
0.0
  0
INSERT
  5
6D
330
1F
100
AcDbEntity
  8
0
100
AcDbBlockReference
  2
block 9
 10
0.0
 20
0.0
 30
0.0
  0
INSERT
  5
72
330
1F
100
AcDbEntity
  8
0
100
AcDbBlockReference
  2
block 10
 10
0.0
 20
0.0
 30
0.0
  0
INSERT
  5
77
330
1F
100
AcDbEntity
  8
0
100
AcDbBlockReference
  2
block 11
 10
0.0
 20
0.0
 30
0.0
  0
INSERT
  5
7F
330
1F
100
AcDbEntity
  8
0
100
AcDbBlockReference
  2
block 12
 10
0.0
 20
0.0
 30
0.0
  0
INSERT
  5
84
330
1F
100
AcDbEntity
  8
0
100
AcDbBlockReference
  2
block 13
 10
0.0
 20
0.0
 30
0.0
  0
INSERT
  5
89
330
1F
100
AcDbEntity
  8
0
100
AcDbBlockReference
  2
block 14
 10
0.0
 20
0.0
 30
0.0
  0
INSERT
  5
8E
330
1F
100
AcDbEntity
  8
0
100
AcDbBlockReference
  2
block 15
 10
0.0
 20
0.0
 30
0.0
  0
INSERT
  5
93
330
1F
100
AcDbEntity
  8
0
100
AcDbBlockReference
  2
block 16
 10
0.0
 20
0.0
 30
0.0
  0
INSERT
  5
9B
330
1F
100
AcDbEntity
  8
0
100
AcDbBlockReference
  2
block 17
 10
0.0
 20
0.0
 30
0.0
  0
INSERT
  5
A0
330
1F
100
AcDbEntity
  8
0
100
AcDbBlockReference
  2
block 18
 10
0.0
 20
0.0
 30
0.0
  0
INSERT
  5
A5
330
1F
100
AcDbEntity
  8
0
100
AcDbBlockReference
  2
block 19
 10
0.0
 20
0.0
 30
0.0
  0
INSERT
  5
AA
330
1F
100
AcDbEntity
  8
0
100
AcDbBlockReference
  2
block 20
 10
0.0
 20
0.0
 30
0.0
  0
INSERT
  5
AF
330
1F
100
AcDbEntity
  8
0
100
AcDbBlockReference
  2
block 21
 10
0.0
 20
0.0
 30
0.0
  0
INSERT
  5
B4
330
1F
100
AcDbEntity
  8
0
100
AcDbBlockReference
  2
block 22
 10
0.0
 20
0.0
 30
0.0
  0
INSERT
  5
B9
330
1F
100
AcDbEntity
  8
0
100
AcDbBlockReference
  2
block 23
 10
0.0
 20
0.0
 30
0.0
  0
INSERT
  5
BE
330
1F
100
AcDbEntity
  8
0
100
AcDbBlockReference
  2
block 24
 10
0.0
 20
0.0
 30
0.0
  0
INSERT
  5
C6
330
1F
100
AcDbEntity
  8
0
100
AcDbBlockReference
  2
block 25
 10
0.0
 20
0.0
 30
0.0
  0
INSERT
  5
CE
330
1F
100
AcDbEntity
  8
0
100
AcDbBlockReference
  2
block 26
 10
0.0
 20
0.0
 30
0.0
  0
INSERT
  5
D6
330
1F
100
AcDbEntity
  8
0
100
AcDbBlockReference
  2
block 27
 10
0.0
 20
0.0
 30
0.0
  0
INSERT
  5
DB
330
1F
100
AcDbEntity
  8
0
100
AcDbBlockReference
  2
block 28
 10
0.0
 20
0.0
 30
0.0
  0
INSERT
  5
E3
330
1F
100
AcDbEntity
  8
0
100
AcDbBlockReference
  2
block 29
 10
0.0
 20
0.0
 30
0.0
  0
INSERT
  5
E8
330
1F
100
AcDbEntity
  8
0
100
AcDbBlockReference
  2
block 30
 10
0.0
 20
0.0
 30
0.0
  0
INSERT
  5
ED
330
1F
100
AcDbEntity
  8
0
100
AcDbBlockReference
  2
block 31
 10
0.0
 20
0.0
 30
0.0
  0
INSERT
  5
F2
330
1F
100
AcDbEntity
  8
0
100
AcDbBlockReference
  2
block 32
 10
0.0
 20
0.0
 30
0.0
  0
INSERT
  5
F7
330
1F
100
AcDbEntity
  8
0
100
AcDbBlockReference
  2
block 33
 10
0.0
 20
0.0
 30
0.0
  0
INSERT
  5
FF
330
1F
100
AcDbEntity
  8
0
100
AcDbBlockReference
  2
block 34
 10
0.0
 20
0.0
 30
0.0
  0
INSERT
  5
104
330
1F
100
AcDbEntity
  8
0
100
AcDbBlockReference
  2
block 35
 10
0.0
 20
0.0
 30
0.0
  0
INSERT
  5
10C
330
1F
100
AcDbEntity
  8
0
100
AcDbBlockReference
  2
block 36
 10
0.0
 20
0.0
 30
0.0
  0
INSERT
  5
111
330
1F
100
AcDbEntity
  8
0
100
AcDbBlockReference
  2
block 37
 10
0.0
 20
0.0
 30
0.0
  0
INSERT
  5
119
330
1F
100
AcDbEntity
  8
0
100
AcDbBlockReference
  2
block 38
 10
0.0
 20
0.0
 30
0.0
  0
INSERT
  5
11E
330
1F
100
AcDbEntity
  8
0
100
AcDbBlockReference
  2
block 39
 10
0.0
 20
0.0
 30
0.0
  0
INSERT
  5
126
330
1F
100
AcDbEntity
  8
0
100
AcDbBlockReference
  2
block 40
 10
0.0
 20
0.0
 30
0.0
  0
INSERT
  5
12B
330
1F
100
AcDbEntity
  8
0
100
AcDbBlockReference
  2
block 41
 10
0.0
 20
0.0
 30
0.0
  0
INSERT
  5
130
330
1F
100
AcDbEntity
  8
0
100
AcDbBlockReference
  2
block 42
 10
0.0
 20
0.0
 30
0.0
  0
INSERT
  5
138
330
1F
100
AcDbEntity
  8
0
100
AcDbBlockReference
  2
block 43
 10
0.0
 20
0.0
 30
0.0
  0
INSERT
  5
140
330
1F
100
AcDbEntity
  8
0
100
AcDbBlockReference
  2
block 44
 10
0.0
 20
0.0
 30
0.0
  0
INSERT
  5
148
330
1F
100
AcDbEntity
  8
0
100
AcDbBlockReference
  2
block 45
 10
0.0
 20
0.0
 30
0.0
  0
INSERT
  5
150
330
1F
100
AcDbEntity
  8
0
100
AcDbBlockReference
  2
block 46
 10
0.0
 20
0.0
 30
0.0
  0
INSERT
  5
155
330
1F
100
AcDbEntity
  8
0
100
AcDbBlockReference
  2
block 47
 10
0.0
 20
0.0
 30
0.0
  0
INSERT
  5
15A
330
1F
100
AcDbEntity
  8
0
100
AcDbBlockReference
  2
block 48
 10
0.0
 20
0.0
 30
0.0
  0
INSERT
  5
15F
330
1F
100
AcDbEntity
  8
0
100
AcDbBlockReference
  2
block 49
 10
0.0
 20
0.0
 30
0.0
  0
INSERT
  5
164
330
1F
100
AcDbEntity
  8
0
100
AcDbBlockReference
  2
block 50
 10
0.0
 20
0.0
 30
0.0
  0
INSERT
  5
169
330
1F
100
AcDbEntity
  8
0
100
AcDbBlockReference
  2
block 51
 10
0.0
 20
0.0
 30
0.0
  0
INSERT
  5
16E
330
1F
100
AcDbEntity
  8
0
100
AcDbBlockReference
  2
block 52
 10
0.0
 20
0.0
 30
0.0
  0
INSERT
  5
173
330
1F
100
AcDbEntity
  8
0
100
AcDbBlockReference
  2
block 53
 10
0.0
 20
0.0
 30
0.0
  0
INSERT
  5
178
330
1F
100
AcDbEntity
  8
0
100
AcDbBlockReference
  2
block 54
 10
0.0
 20
0.0
 30
0.0
  0
INSERT
  5
17D
330
1F
100
AcDbEntity
  8
0
100
AcDbBlockReference
  2
block 55
 10
0.0
 20
0.0
 30
0.0
  0
INSERT
  5
182
330
1F
100
AcDbEntity
  8
0
100
AcDbBlockReference
  2
block 56
 10
0.0
 20
0.0
 30
0.0
  0
INSERT
  5
187
330
1F
100
AcDbEntity
  8
0
100
AcDbBlockReference
  2
block 57
 10
0.0
 20
0.0
 30
0.0
  0
INSERT
  5
18C
330
1F
100
AcDbEntity
  8
0
100
AcDbBlockReference
  2
block 58
 10
0.0
 20
0.0
 30
0.0
  0
INSERT
  5
191
330
1F
100
AcDbEntity
  8
0
100
AcDbBlockReference
  2
block 59
 10
0.0
 20
0.0
 30
0.0
  0
INSERT
  5
196
330
1F
100
AcDbEntity
  8
0
100
AcDbBlockReference
  2
block 60
 10
0.0
 20
0.0
 30
0.0
  0
INSERT
  5
19E
330
1F
100
AcDbEntity
  8
0
100
AcDbBlockReference
  2
block 61
 10
0.0
 20
0.0
 30
0.0
  0
INSERT
  5
1A3
330
1F
100
AcDbEntity
  8
0
100
AcDbBlockReference
  2
block 62
 10
0.0
 20
0.0
 30
0.0
  0
INSERT
  5
1A8
330
1F
100
AcDbEntity
  8
0
100
AcDbBlockReference
  2
block 63
 10
0.0
 20
0.0
 30
0.0
  0
INSERT
  5
1AD
330
1F
100
AcDbEntity
  8
0
100
AcDbBlockReference
  2
block 64
 10
0.0
 20
0.0
 30
0.0
  0
INSERT
  5
1B2
330
1F
100
AcDbEntity
  8
0
100
AcDbBlockReference
  2
block 65
 10
0.0
 20
0.0
 30
0.0
  0
INSERT
  5
1B7
330
1F
100
AcDbEntity
  8
0
100
AcDbBlockReference
  2
block 66
 10
0.0
 20
0.0
 30
0.0
  0
INSERT
  5
1BC
330
1F
100
AcDbEntity
  8
0
100
AcDbBlockReference
  2
block 67
 10
0.0
 20
0.0
 30
0.0
  0
INSERT
  5
1C4
330
1F
100
AcDbEntity
  8
0
100
AcDbBlockReference
  2
block 68
 10
0.0
 20
0.0
 30
0.0
  0
INSERT
  5
1CC
330
1F
100
AcDbEntity
  8
0
100
AcDbBlockReference
  2
block 69
 10
0.0
 20
0.0
 30
0.0
  0
INSERT
  5
1D1
330
1F
100
AcDbEntity
  8
0
100
AcDbBlockReference
  2
block 70
 10
0.0
 20
0.0
 30
0.0
  0
INSERT
  5
1D6
330
1F
100
AcDbEntity
  8
0
100
AcDbBlockReference
  2
block 71
 10
0.0
 20
0.0
 30
0.0
  0
INSERT
  5
1DB
330
1F
100
AcDbEntity
  8
0
100
AcDbBlockReference
  2
block 72
 10
0.0
 20
0.0
 30
0.0
  0
INSERT
  5
1E0
330
1F
100
AcDbEntity
  8
0
100
AcDbBlockReference
  2
block 73
 10
0.0
 20
0.0
 30
0.0
  0
INSERT
  5
1E5
330
1F
100
AcDbEntity
  8
0
100
AcDbBlockReference
  2
block 74
 10
0.0
 20
0.0
 30
0.0
  0
INSERT
  5
1ED
330
1F
100
AcDbEntity
  8
0
100
AcDbBlockReference
  2
block 75
 10
0.0
 20
0.0
 30
0.0
  0
INSERT
  5
1F5
330
1F
100
AcDbEntity
  8
0
100
AcDbBlockReference
  2
block 76
 10
0.0
 20
0.0
 30
0.0
  0
INSERT
  5
1FA
330
1F
100
AcDbEntity
  8
0
100
AcDbBlockReference
  2
block 77
 10
0.0
 20
0.0
 30
0.0
  0
INSERT
  5
1FF
330
1F
100
AcDbEntity
  8
0
100
AcDbBlockReference
  2
block 78
 10
0.0
 20
0.0
 30
0.0
  0
INSERT
  5
204
330
1F
100
AcDbEntity
  8
0
100
AcDbBlockReference
  2
block 79
 10
0.0
 20
0.0
 30
0.0
  0
INSERT
  5
209
330
1F
100
AcDbEntity
  8
0
100
AcDbBlockReference
  2
block 80
 10
0.0
 20
0.0
 30
0.0
  0
INSERT
  5
20E
330
1F
100
AcDbEntity
  8
0
100
AcDbBlockReference
  2
block 81
 10
0.0
 20
0.0
 30
0.0
  0
INSERT
  5
213
330
1F
100
AcDbEntity
  8
0
100
AcDbBlockReference
  2
block 82
 10
0.0
 20
0.0
 30
0.0
  0
INSERT
  5
218
330
1F
100
AcDbEntity
  8
0
100
AcDbBlockReference
  2
block 83
 10
0.0
 20
0.0
 30
0.0
  0
INSERT
  5
21D
330
1F
100
AcDbEntity
  8
0
100
AcDbBlockReference
  2
block 84
 10
0.0
 20
0.0
 30
0.0
  0
INSERT
  5
225
330
1F
100
AcDbEntity
  8
0
100
AcDbBlockReference
  2
block 85
 10
0.0
 20
0.0
 30
0.0
  0
INSERT
  5
22D
330
1F
100
AcDbEntity
  8
0
100
AcDbBlockReference
  2
block 86
 10
0.0
 20
0.0
 30
0.0
  0
INSERT
  5
235
330
1F
100
AcDbEntity
  8
0
100
AcDbBlockReference
  2
block 87
 10
0.0
 20
0.0
 30
0.0
  0
INSERT
  5
23D
330
1F
100
AcDbEntity
  8
0
100
AcDbBlockReference
  2
block 88
 10
0.0
 20
0.0
 30
0.0
  0
INSERT
  5
242
330
1F
100
AcDbEntity
  8
0
100
AcDbBlockReference
  2
block 89
 10
0.0
 20
0.0
 30
0.0
  0
INSERT
  5
247
330
1F
100
AcDbEntity
  8
0
100
AcDbBlockReference
  2
block 90
 10
0.0
 20
0.0
 30
0.0
  0
INSERT
  5
24C
330
1F
100
AcDbEntity
  8
0
100
AcDbBlockReference
  2
block 91
 10
0.0
 20
0.0
 30
0.0
  0
INSERT
  5
251
330
1F
100
AcDbEntity
  8
0
100
AcDbBlockReference
  2
block 92
 10
0.0
 20
0.0
 30
0.0
  0
INSERT
  5
259
330
1F
100
AcDbEntity
  8
0
100
AcDbBlockReference
  2
block 93
 10
0.0
 20
0.0
 30
0.0
  0
INSERT
  5
261
330
1F
100
AcDbEntity
  8
0
100
AcDbBlockReference
  2
block 94
 10
0.0
 20
0.0
 30
0.0
  0
INSERT
  5
266
330
1F
100
AcDbEntity
  8
0
100
AcDbBlockReference
  2
block 95
 10
0.0
 20
0.0
 30
0.0
  0
INSERT
  5
26B
330
1F
100
AcDbEntity
  8
0
100
AcDbBlockReference
  2
block 96
 10
0.0
 20
0.0
 30
0.0
  0
INSERT
  5
270
330
1F
100
AcDbEntity
  8
0
100
AcDbBlockReference
  2
block 97
 10
0.0
 20
0.0
 30
0.0
  0
INSERT
  5
275
330
1F
100
AcDbEntity
  8
0
100
AcDbBlockReference
  2
block 98
 10
0.0
 20
0.0
 30
0.0
  0
INSERT
  5
27A
330
1F
100
AcDbEntity
  8
0
100
AcDbBlockReference
  2
block 99
 10
0.0
 20
0.0
 30
0.0
  0
INSERT
  5
27F
330
1F
100
AcDbEntity
  8
0
100
AcDbBlockReference
  2
block 100
 10
0.0
 20
0.0
 30
0.0
  0
INSERT
  5
284
330
1F
100
AcDbEntity
  8
0
100
AcDbBlockReference
  2
block 101
 10
0.0
 20
0.0
 30
0.0
  0
INSERT
  5
289
330
1F
100
AcDbEntity
  8
0
100
AcDbBlockReference
  2
block 102
 10
0.0
 20
0.0
 30
0.0
  0
INSERT
  5
28E
330
1F
100
AcDbEntity
  8
0
100
AcDbBlockReference
  2
block 103
 10
0.0
 20
0.0
 30
0.0
  0
INSERT
  5
293
330
1F
100
AcDbEntity
  8
0
100
AcDbBlockReference
  2
block 104
 10
0.0
 20
0.0
 30
0.0
  0
INSERT
  5
298
330
1F
100
AcDbEntity
  8
0
100
AcDbBlockReference
  2
block 105
 10
0.0
 20
0.0
 30
0.0
  0
INSERT
  5
29D
330
1F
100
AcDbEntity
  8
0
100
AcDbBlockReference
  2
block 106
 10
0.0
 20
0.0
 30
0.0
  0
INSERT
  5
2A2
330
1F
100
AcDbEntity
  8
0
100
AcDbBlockReference
  2
block 107
 10
0.0
 20
0.0
 30
0.0
  0
INSERT
  5
2AA
330
1F
100
AcDbEntity
  8
0
100
AcDbBlockReference
  2
block 108
 10
0.0
 20
0.0
 30
0.0
  0
ENDSEC
  0
SECTION
  2
OBJECTS
  0
DICTIONARY
  5
C
330
0
100
AcDbDictionary
281
     1
  3
ACAD_GROUP
350
D
  3
ACAD_LAYOUT
350
1A
  3
ACAD_MATERIAL
350
3B
  3
ACAD_MLEADERSTYLE
350
2D2
  3
ACAD_MLINESTYLE
350
17
  3
ACAD_PLOTSETTINGS
350
19
  3
ACAD_PLOTSTYLENAME
350
E
  3
ACAD_TABLESTYLE
350
2D1
  3
ACAD_VISUALSTYLE
350
2A
  0
SUN
  5
3F
330
29
100
AcDbSun
 90
        1
290
     0
 63
     7
421
 16777215
 40
1.0
291
     1
 91
  2455826
 92
 54000000
292
     0
 70
     2
 71
   256
280
     1
  0
DICTIONARY
  5
D
102
{ACAD_REACTORS
330
C
102
}
330
C
100
AcDbDictionary
281
     1
  0
DICTIONARY
  5
1A
102
{ACAD_REACTORS
330
C
102
}
330
C
100
AcDbDictionary
281
     1
  3
Layout1
350
1E
  3
Layout2
350
26
  3
Model
350
22
  0
DICTIONARY
  5
3B
102
{ACAD_REACTORS
330
C
102
}
330
C
100
AcDbDictionary
281
     1
  3
ByBlock
350
3D
  3
ByLayer
350
3C
  3
Global
350
3E
  0
DICTIONARY
  5
2D2
102
{ACAD_REACTORS
330
C
102
}
330
C
100
AcDbDictionary
281
     1
  0
DICTIONARY
  5
17
102
{ACAD_REACTORS
330
C
102
}
330
C
100
AcDbDictionary
281
     1
  3
Standard
350
18
  0
DICTIONARY
  5
19
102
{ACAD_REACTORS
330
C
102
}
330
C
100
AcDbDictionary
281
     1
  0
ACDBDICTIONARYWDFLT
  5
E
102
{ACAD_REACTORS
330
C
102
}
330
C
100
AcDbDictionary
281
     1
  3
Normal
350
F
100
AcDbDictionaryWithDefault
340
F
  0
DICTIONARY
  5
2D1
102
{ACAD_REACTORS
330
C
102
}
330
C
100
AcDbDictionary
281
     1
  0
DICTIONARY
  5
2A
102
{ACAD_REACTORS
330
C
102
}
330
C
100
AcDbDictionary
281
     1
  3
2dWireframe
350
2F
  3
3D Hidden
350
31
  3
3dWireframe
350
30
  3
Basic
350
32
  3
Brighten
350
36
  3
ColorChange
350
3A
  3
Conceptual
350
34
  3
Dim
350
35
  3
Facepattern
350
39
  3
Flat
350
2B
  3
FlatWithEdges
350
2C
  3
Gouraud
350
2D
  3
GouraudWithEdges
350
2E
  3
Linepattern
350
38
  3
Realistic
350
33
  3
Thicken
350
37
  0
LAYOUT
  5
1E
102
{ACAD_REACTORS
330
1A
102
}
330
1A
100
AcDbPlotSettings
  1

  2
none_device
  4

  6

 40
0.0
 41
0.0
 42
0.0
 43
0.0
 44
0.0
 45
0.0
 46
0.0
 47
0.0
 48
0.0
 49
0.0
140
0.0
141
0.0
142
1.0
143
1.0
 70
   688
 72
     0
 73
     0
 74
     5
  7

 75
    16
 76
     0
 77
     2
 78
   300
147
1.0
148
0.0
149
0.0
100
AcDbLayout
  1
Layout1
 70
     1
 71
     1
 10
0.0
 20
0.0
 11
12.0
 21
9.0
 12
0.0
 22
0.0
 32
0.0
 14
1.000000000000000E+20
 24
1.000000000000000E+20
 34
1.000000000000000E+20
 15
-1.000000000000000E+20
 25
-1.000000000000000E+20
 35
-1.000000000000000E+20
146
0.0
 13
0.0
 23
0.0
 33
0.0
 16
1.0
 26
0.0
 36
0.0
 17
0.0
 27
1.0
 37
0.0
 76
     0
330
1B
  0
LAYOUT
  5
26
102
{ACAD_REACTORS
330
1A
102
}
330
1A
100
AcDbPlotSettings
  1

  2
none_device
  4

  6

 40
0.0
 41
0.0
 42
0.0
 43
0.0
 44
0.0
 45
0.0
 46
0.0
 47
0.0
 48
0.0
 49
0.0
140
0.0
141
0.0
142
1.0
143
1.0
 70
   688
 72
     0
 73
     0
 74
     5
  7

 75
    16
 76
     0
 77
     2
 78
   300
147
1.0
148
0.0
149
0.0
100
AcDbLayout
  1
Layout2
 70
     1
 71
     2
 10
0.0
 20
0.0
 11
0.0
 21
0.0
 12
0.0
 22
0.0
 32
0.0
 14
0.0
 24
0.0
 34
0.0
 15
0.0
 25
0.0
 35
0.0
146
0.0
 13
0.0
 23
0.0
 33
0.0
 16
1.0
 26
0.0
 36
0.0
 17
0.0
 27
1.0
 37
0.0
 76
     0
330
23
  0
LAYOUT
  5
22
102
{ACAD_REACTORS
330
1A
102
}
330
1A
100
AcDbPlotSettings
  1

  2
none_device
  4

  6

 40
0.0
 41
0.0
 42
0.0
 43
0.0
 44
0.0
 45
0.0
 46
0.0
 47
0.0
 48
0.0
 49
0.0
140
0.0
141
0.0
142
1.0
143
1.0
 70
  1712
 72
     0
 73
     0
 74
     0
  7

 75
     0
 76
     0
 77
     2
 78
   300
147
1.0
148
0.0
149
0.0
100
AcDbLayout
  1
Model
 70
     1
 71
     0
 10
0.0
 20
0.0
 11
12.0
 21
9.0
 12
0.0
 22
0.0
 32
0.0
 14
1.000000000000000E+20
 24
1.000000000000000E+20
 34
1.000000000000000E+20
 15
-1.000000000000000E+20
 25
-1.000000000000000E+20
 35
-1.000000000000000E+20
146
0.0
 13
0.0
 23
0.0
 33
0.0
 16
1.0
 26
0.0
 36
0.0
 17
0.0
 27
1.0
 37
0.0
 76
     0
330
1F
331
29
  0
MATERIAL
  5
3D
102
{ACAD_REACTORS
330
3B
102
}
330
3B
100
AcDbMaterial
  1
ByBlock
 72
     1
 94
      127
  0
MATERIAL
  5
3C
102
{ACAD_REACTORS
330
3B
102
}
330
3B
100
AcDbMaterial
  1
ByLayer
 72
     1
 94
      127
  0
MATERIAL
  5
3E
102
{ACAD_REACTORS
330
3B
102
}
330
3B
100
AcDbMaterial
  1
Global
 72
     1
 94
      127
  0
MLINESTYLE
  5
18
102
{ACAD_REACTORS
330
17
102
}
330
17
100
AcDbMlineStyle
  2
Standard
 70
     0
  3

 62
   256
 51
90.0
 52
90.0
 71
     2
 49
0.5
 62
   256
  6
BYLAYER
 49
-0.5
 62
   256
  6
BYLAYER
  0
ACDBPLACEHOLDER
  5
F
102
{ACAD_REACTORS
330
E
102
}
330
E
  0
VISUALSTYLE
  5
2F
102
{ACAD_REACTORS
330
2A
102
}
102
{ACAD_XDICTIONARY
360
2B9
102
}
330
2A
100
AcDbVisualStyle
  2
2dWireframe
 70
     4
 71
     0
 72
     2
 73
     0
 90
        0
 40
-0.6
 41
-30.0
 62
     5
 63
     7
421
 16777215
 74
     1
 91
        4
 64
     7
 65
   257
 75
     1
175
     1
 42
1.0
 92
        0
 66
   257
 43
1.0
 76
     1
 77
     6
 78
     2
 67
     7
 79
     5
170
     0
171
     0
290
     0
174
     0
 93
        1
 44
0.0
173
     0
291
     0
 45
0.0
  0
VISUALSTYLE
  5
31
102
{ACAD_REACTORS
330
2A
102
}
102
{ACAD_XDICTIONARY
360
2BD
102
}
330
2A
100
AcDbVisualStyle
  2
3D Hidden
 70
     6
 71
     1
 72
     2
 73
     2
 90
        0
 40
-0.6
 41
-30.0
 62
     5
 63
     7
421
 16777215
 74
     2
 91
        2
 64
     7
 65
   257
 75
     2
175
     1
 42
40.0
 92
        0
 66
   257
 43
1.0
 76
     1
 77
     6
 78
     2
 67
     7
 79
     3
170
     0
171
     0
290
     0
174
     0
 93
        1
 44
0.0
173
     0
291
     0
 45
0.0
  0
VISUALSTYLE
  5
30
102
{ACAD_REACTORS
330
2A
102
}
102
{ACAD_XDICTIONARY
360
2BB
102
}
330
2A
100
AcDbVisualStyle
  2
3dWireframe
 70
     5
 71
     0
 72
     2
 73
     0
 90
        0
 40
-0.6
 41
-30.0
 62
     5
 63
     7
421
 16777215
 74
     1
 91
        4
 64
     7
 65
   257
 75
     1
175
     1
 42
1.0
 92
        0
 66
   257
 43
1.0
 76
     1
 77
     6
 78
     2
 67
     7
 79
     5
170
     0
171
     0
290
     0
174
     0
 93
        1
 44
0.0
173
     0
291
     0
 45
0.0
  0
VISUALSTYLE
  5
32
102
{ACAD_REACTORS
330
2A
102
}
102
{ACAD_XDICTIONARY
360
2BF
102
}
330
2A
100
AcDbVisualStyle
  2
Basic
 70
     7
 71
     1
 72
     0
 73
     1
 90
        0
 40
-0.6
 41
-30.0
 62
     5
 63
     7
421
 16777215
 74
     0
 91
        4
 64
     7
 65
   257
 75
     1
175
     1
 42
1.0
 92
        8
 66
     7
 43
1.0
 76
     1
 77
     6
 78
     2
 67
     7
 79
     5
170
     0
171
     0
290
     0
174
     0
 93
        1
 44
0.0
173
     0
291
     1
 45
0.0
  0
VISUALSTYLE
  5
36
102
{ACAD_REACTORS
330
2A
102
}
102
{ACAD_XDICTIONARY
360
2C7
102
}
330
2A
100
AcDbVisualStyle
  2
Brighten
 70
    12
 71
     2
 72
     2
 73
     0
 90
        0
 40
-0.6
 41
-30.0
 62
     5
 63
     7
421
 16777215
 74
     1
 91
        4
 64
     7
 65
   257
 75
     1
175
     1
 42
1.0
 92
        8
 66
     7
 43
1.0
 76
     1
 77
     6
 78
     2
 67
     7
 79
     5
170
     0
171
     0
290
     0
174
     0
 93
        1
 44
50.0
173
     0
291
     1
 45
0.0
  0
VISUALSTYLE
  5
3A
102
{ACAD_REACTORS
330
2A
102
}
102
{ACAD_XDICTIONARY
360
2CF
102
}
330
2A
100
AcDbVisualStyle
  2
ColorChange
 70
    16
 71
     2
 72
     2
 73
     3
 90
        0
 40
-0.6
 41
-30.0
 62
     5
 63
     8
421
  8421504
 74
     1
 91
        4
 64
     7
 65
   257
 75
     1
175
     1
 42
1.0
 92
        8
 66
     8
424
  8421504
 43
1.0
 76
     1
 77
     6
 78
     2
 67
     7
 79
     5
170
     0
171
     0
290
     0
174
     0
 93
        1
 44
0.0
173
     0
291
     1
 45
0.0
  0
VISUALSTYLE
  5
34
102
{ACAD_REACTORS
330
2A
102
}
102
{ACAD_XDICTIONARY
360
2C3
102
}
330
2A
100
AcDbVisualStyle
  2
Conceptual
 70
     9
 71
     3
 72
     2
 73
     0
 90
        0
 40
-0.6
 41
-30.0
 62
     5
 63
     7
421
 16777215
 74
     2
 91
        2
 64
     7
 65
   257
 75
     1
175
     1
 42
40.0
 92
        8
 66
     7
 43
1.0
 76
     1
 77
     6
 78
     2
 67
     7
 79
     3
170
     0
171
     0
290
     0
174
     0
 93
        1
 44
0.0
173
     0
291
     0
 45
0.0
  0
VISUALSTYLE
  5
35
102
{ACAD_REACTORS
330
2A
102
}
102
{ACAD_XDICTIONARY
360
2C5
102
}
330
2A
100
AcDbVisualStyle
  2
Dim
 70
    11
 71
     2
 72
     2
 73
     0
 90
        0
 40
-0.6
 41
-30.0
 62
     5
 63
     7
421
 16777215
 74
     1
 91
        4
 64
     7
 65
   257
 75
     1
175
     1
 42
1.0
 92
        8
 66
     7
 43
1.0
 76
     1
 77
     6
 78
     2
 67
     7
 79
     5
170
     0
171
     0
290
     0
174
     0
 93
        1
 44
-50.0
173
     0
291
     1
 45
0.0
  0
VISUALSTYLE
  5
39
102
{ACAD_REACTORS
330
2A
102
}
102
{ACAD_XDICTIONARY
360
2CD
102
}
330
2A
100
AcDbVisualStyle
  2
Facepattern
 70
    15
 71
     2
 72
     2
 73
     0
 90
        0
 40
-0.6
 41
-30.0
 62
     5
 63
     7
421
 16777215
 74
     1
 91
        4
 64
     7
 65
   257
 75
     1
175
     1
 42
1.0
 92
        8
 66
     7
 43
1.0
 76
     1
 77
     6
 78
     2
 67
     7
 79
     5
170
     0
171
     0
290
     0
174
     0
 93
        1
 44
0.0
173
     0
291
     1
 45
0.0
  0
VISUALSTYLE
  5
2B
102
{ACAD_REACTORS
330
2A
102
}
102
{ACAD_XDICTIONARY
360
2B1
102
}
330
2A
100
AcDbVisualStyle
  2
Flat
 70
     0
 71
     2
 72
     1
 73
     1
 90
        2
 40
-0.6
 41
30.0
 62
     5
 63
     7
421
 16777215
 74
     0
 91
        4
 64
     7
 65
   257
 75
     1
175
     1
 42
1.0
 92
        8
 66
     7
 43
1.0
 76
     1
 77
     6
 78
     2
 67
     7
 79
     5
170
     0
171
     0
290
     0
174
     0
 93
       13
 44
0.0
173
     0
291
     1
 45
0.0
  0
VISUALSTYLE
  5
2C
102
{ACAD_REACTORS
330
2A
102
}
102
{ACAD_XDICTIONARY
360
2B3
102
}
330
2A
100
AcDbVisualStyle
  2
FlatWithEdges
 70
     1
 71
     2
 72
     1
 73
     1
 90
        2
 40
-0.6
 41
30.0
 62
     5
 63
     7
421
 16777215
 74
     1
 91
        4
 64
     7
 65
   257
 75
     1
175
     1
 42
1.0
 92
        0
 66
   257
 43
1.0
 76
     1
 77
     6
 78
     2
 67
     7
 79
     5
170
     0
171
     0
290
     0
174
     0
 93
       13
 44
0.0
173
     0
291
     1
 45
0.0
  0
VISUALSTYLE
  5
2D
102
{ACAD_REACTORS
330
2A
102
}
102
{ACAD_XDICTIONARY
360
2B5
102
}
330
2A
100
AcDbVisualStyle
  2
Gouraud
 70
     2
 71
     2
 72
     2
 73
     1
 90
        2
 40
-0.6
 41
30.0
 62
     5
 63
     7
421
 16777215
 74
     0
 91
        4
 64
     7
 65
   257
 75
     1
175
     1
 42
1.0
 92
        0
 66
     7
 43
1.0
 76
     1
 77
     6
 78
     2
 67
     7
 79
     5
170
     0
171
     0
290
     0
174
     0
 93
       13
 44
0.0
173
     0
291
     1
 45
0.0
  0
VISUALSTYLE
  5
2E
102
{ACAD_REACTORS
330
2A
102
}
102
{ACAD_XDICTIONARY
360
2B7
102
}
330
2A
100
AcDbVisualStyle
  2
GouraudWithEdges
 70
     3
 71
     2
 72
     2
 73
     1
 90
        2
 40
-0.6
 41
30.0
 62
     5
 63
     7
421
 16777215
 74
     1
 91
        4
 64
     7
 65
   257
 75
     1
175
     1
 42
1.0
 92
        0
 66
   257
 43
1.0
 76
     1
 77
     6
 78
     2
 67
     7
 79
     5
170
     0
171
     0
290
     0
174
     0
 93
       13
 44
0.0
173
     0
291
     1
 45
0.0
  0
VISUALSTYLE
  5
38
102
{ACAD_REACTORS
330
2A
102
}
102
{ACAD_XDICTIONARY
360
2CB
102
}
330
2A
100
AcDbVisualStyle
  2
Linepattern
 70
    14
 71
     2
 72
     2
 73
     0
 90
        0
 40
-0.6
 41
-30.0
 62
     5
 63
     7
421
 16777215
 74
     1
 91
        4
 64
     7
 65
   257
 75
     7
175
     7
 42
1.0
 92
        8
 66
     7
 43
1.0
 76
     1
 77
     6
 78
     2
 67
     7
 79
     5
170
     0
171
     0
290
     0
174
     0
 93
        1
 44
0.0
173
     0
291
     1
 45
0.0
  0
VISUALSTYLE
  5
33
102
{ACAD_REACTORS
330
2A
102
}
102
{ACAD_XDICTIONARY
360
2C1
102
}
330
2A
100
AcDbVisualStyle
  2
Realistic
 70
     8
 71
     2
 72
     2
 73
     0
 90
        0
 40
-0.6
 41
-30.0
 62
     5
 63
     7
421
 16777215
 74
     1
 91
        0
 64
     7
 65
   257
 75
     1
175
     1
 42
1.0
 92
        8
 66
     8
424
  7895160
 43
1.0
 76
     1
 77
     6
 78
     2
 67
     7
 79
     5
170
     0
171
     0
290
     0
174
     0
 93
       13
 44
0.0
173
     0
291
     0
 45
0.0
  0
VISUALSTYLE
  5
37
102
{ACAD_REACTORS
330
2A
102
}
102
{ACAD_XDICTIONARY
360
2C9
102
}
330
2A
100
AcDbVisualStyle
  2
Thicken
 70
    13
 71
     2
 72
     2
 73
     0
 90
        0
 40
-0.6
 41
-30.0
 62
     5
 63
     7
421
 16777215
 74
     1
 91
        4
 64
     7
 65
   257
 75
     1
175
     1
 42
1.0
 92
       12
 66
     7
 43
1.0
 76
     1
 77
     6
 78
     2
 67
     7
 79
     5
170
     0
171
     0
290
     0
174
     0
 93
        1
 44
0.0
173
     0
291
     1
 45
0.0
  0
DICTIONARY
  5
2B9
330
2F
100
AcDbDictionary
280
     1
281
     1
  3
ACAD_XREC_ROUNDTRIP
360
2BA
  0
DICTIONARY
  5
2BD
330
31
100
AcDbDictionary
280
     1
281
     1
  3
ACAD_XREC_ROUNDTRIP
360
2BE
  0
DICTIONARY
  5
2BB
330
30
100
AcDbDictionary
280
     1
281
     1
  3
ACAD_XREC_ROUNDTRIP
360
2BC
  0
DICTIONARY
  5
2BF
330
32
100
AcDbDictionary
280
     1
281
     1
  3
ACAD_XREC_ROUNDTRIP
360
2C0
  0
DICTIONARY
  5
2C7
330
36
100
AcDbDictionary
280
     1
281
     1
  3
ACAD_XREC_ROUNDTRIP
360
2C8
  0
DICTIONARY
  5
2CF
330
3A
100
AcDbDictionary
280
     1
281
     1
  3
ACAD_XREC_ROUNDTRIP
360
2D0
  0
DICTIONARY
  5
2C3
330
34
100
AcDbDictionary
280
     1
281
     1
  3
ACAD_XREC_ROUNDTRIP
360
2C4
  0
DICTIONARY
  5
2C5
330
35
100
AcDbDictionary
280
     1
281
     1
  3
ACAD_XREC_ROUNDTRIP
360
2C6
  0
DICTIONARY
  5
2CD
330
39
100
AcDbDictionary
280
     1
281
     1
  3
ACAD_XREC_ROUNDTRIP
360
2CE
  0
DICTIONARY
  5
2B1
330
2B
100
AcDbDictionary
280
     1
281
     1
  3
ACAD_XREC_ROUNDTRIP
360
2B2
  0
DICTIONARY
  5
2B3
330
2C
100
AcDbDictionary
280
     1
281
     1
  3
ACAD_XREC_ROUNDTRIP
360
2B4
  0
DICTIONARY
  5
2B5
330
2D
100
AcDbDictionary
280
     1
281
     1
  3
ACAD_XREC_ROUNDTRIP
360
2B6
  0
DICTIONARY
  5
2B7
330
2E
100
AcDbDictionary
280
     1
281
     1
  3
ACAD_XREC_ROUNDTRIP
360
2B8
  0
DICTIONARY
  5
2CB
330
38
100
AcDbDictionary
280
     1
281
     1
  3
ACAD_XREC_ROUNDTRIP
360
2CC
  0
DICTIONARY
  5
2C1
330
33
100
AcDbDictionary
280
     1
281
     1
  3
ACAD_XREC_ROUNDTRIP
360
2C2
  0
DICTIONARY
  5
2C9
330
37
100
AcDbDictionary
280
     1
281
     1
  3
ACAD_XREC_ROUNDTRIP
360
2CA
  0
XRECORD
  5
2BA
102
{ACAD_REACTORS
330
2B9
102
}
330
2B9
100
AcDbXrecord
280
     1
102
RTVSPropertyOp0
 70
     1
102
RTVSPropertyOp1
 70
     1
102
RTVSPropertyOp2
 70
     1
102
RTVSPropertyOp3
 70
     1
102
RTVSPropertyOp4
 70
     1
102
RTVSPropertyOp5
 70
     1
102
RTVSPropertyOp6
 70
     1
102
RTVSPropertyOp7
 70
     1
102
RTVSPropertyOp8
 70
     1
102
RTVSPropertyOp9
 70
     1
102
RTVSPropertyOp10
 70
     1
102
RTVSPropertyOp11
 70
     1
102
RTVSPropertyOp12
 70
     1
102
RTVSPropertyOp13
 70
     1
102
RTVSPropertyOp14
 70
     1
102
RTVSPropertyOp15
 70
     1
102
RTVSPropertyOp16
 70
     1
102
RTVSPropertyOp17
 70
     1
102
RTVSPropertyOp18
 70
     1
102
RTVSPropertyOp19
 70
     1
102
RTVSPropertyOp20
 70
     1
102
RTVSPropertyOp21
 70
     1
102
RTVSPropertyOp22
 70
     1
102
RTVSPropertyOp23
 70
     1
102
RTVSPropertyOp24
 70
     1
102
RTVSPropertyOp25
 70
     1
102
RTVSPropertyOp26
 70
     1
102
RTVSPropertyOp27
 70
     1
102
RTVSPropertyOp28
 70
     1
102
RTVSPropertyOp29
 70
     1
102
RTVSPropertyOp30
 70
     1
102
RTVSPropertyOp31
 70
     1
102
RTVSPropertyOp32
 70
     1
  0
XRECORD
  5
2BE
102
{ACAD_REACTORS
330
2BD
102
}
330
2BD
100
AcDbXrecord
280
     1
102
RTVSPropertyOp0
 70
     1
102
RTVSPropertyOp1
 70
     1
102
RTVSPropertyOp2
 70
     1
102
RTVSPropertyOp3
 70
     1
102
RTVSPropertyOp4
 70
     1
102
RTVSPropertyOp5
 70
     1
102
RTVSPropertyOp6
 70
     1
102
RTVSPropertyOp7
 70
     1
102
RTVSPropertyOp8
 70
     1
102
RTVSPropertyOp9
 70
     1
102
RTVSPropertyOp10
 70
     1
102
RTVSPropertyOp11
 70
     1
102
RTVSPropertyOp12
 70
     1
102
RTVSPropertyOp13
 70
     1
102
RTVSPropertyOp14
 70
     1
102
RTVSPropertyOp15
 70
     1
102
RTVSPropertyOp16
 70
     1
102
RTVSPropertyOp17
 70
     1
102
RTVSPropertyOp18
 70
     1
102
RTVSPropertyOp19
 70
     1
102
RTVSPropertyOp20
 70
     1
102
RTVSPropertyOp21
 70
     1
102
RTVSPropertyOp22
 70
     1
102
RTVSPropertyOp23
 70
     1
102
RTVSPropertyOp24
 70
     1
102
RTVSPropertyOp25
 70
     1
102
RTVSPropertyOp26
 70
     1
102
RTVSPropertyOp27
 70
     1
102
RTVSPropertyOp28
 70
     1
102
RTVSPropertyOp29
 70
     1
102
RTVSPropertyOp30
 70
     1
102
RTVSPropertyOp31
 70
     1
102
RTVSPropertyOp32
 70
     1
  0
XRECORD
  5
2BC
102
{ACAD_REACTORS
330
2BB
102
}
330
2BB
100
AcDbXrecord
280
     1
102
RTVSPropertyOp0
 70
     1
102
RTVSPropertyOp1
 70
     1
102
RTVSPropertyOp2
 70
     1
102
RTVSPropertyOp3
 70
     1
102
RTVSPropertyOp4
 70
     1
102
RTVSPropertyOp5
 70
     1
102
RTVSPropertyOp6
 70
     1
102
RTVSPropertyOp7
 70
     1
102
RTVSPropertyOp8
 70
     1
102
RTVSPropertyOp9
 70
     1
102
RTVSPropertyOp10
 70
     1
102
RTVSPropertyOp11
 70
     1
102
RTVSPropertyOp12
 70
     1
102
RTVSPropertyOp13
 70
     1
102
RTVSPropertyOp14
 70
     1
102
RTVSPropertyOp15
 70
     1
102
RTVSPropertyOp16
 70
     1
102
RTVSPropertyOp17
 70
     1
102
RTVSPropertyOp18
 70
     1
102
RTVSPropertyOp19
 70
     1
102
RTVSPropertyOp20
 70
     1
102
RTVSPropertyOp21
 70
     1
102
RTVSPropertyOp22
 70
     1
102
RTVSPropertyOp23
 70
     1
102
RTVSPropertyOp24
 70
     1
102
RTVSPropertyOp25
 70
     1
102
RTVSPropertyOp26
 70
     1
102
RTVSPropertyOp27
 70
     1
102
RTVSPropertyOp28
 70
     1
102
RTVSPropertyOp29
 70
     1
102
RTVSPropertyOp30
 70
     1
102
RTVSPropertyOp31
 70
     1
102
RTVSPropertyOp32
 70
     1
  0
XRECORD
  5
2C0
102
{ACAD_REACTORS
330
2BF
102
}
330
2BF
100
AcDbXrecord
280
     1
102
RTVSPropertyOp0
 70
     1
102
RTVSPropertyOp1
 70
     1
102
RTVSPropertyOp2
 70
     1
102
RTVSPropertyOp3
 70
     1
102
RTVSPropertyOp4
 70
     1
102
RTVSPropertyOp5
 70
     1
102
RTVSPropertyOp6
 70
     1
102
RTVSPropertyOp7
 70
     1
102
RTVSPropertyOp8
 70
     1
102
RTVSPropertyOp9
 70
     1
102
RTVSPropertyOp10
 70
     1
102
RTVSPropertyOp11
 70
     1
102
RTVSPropertyOp12
 70
     1
102
RTVSPropertyOp13
 70
     1
102
RTVSPropertyOp14
 70
     1
102
RTVSPropertyOp15
 70
     1
102
RTVSPropertyOp16
 70
     1
102
RTVSPropertyOp17
 70
     1
102
RTVSPropertyOp18
 70
     1
102
RTVSPropertyOp19
 70
     1
102
RTVSPropertyOp20
 70
     1
102
RTVSPropertyOp21
 70
     1
102
RTVSPropertyOp22
 70
     1
102
RTVSPropertyOp23
 70
     1
102
RTVSPropertyOp24
 70
     1
102
RTVSPropertyOp25
 70
     1
102
RTVSPropertyOp26
 70
     1
102
RTVSPropertyOp27
 70
     1
102
RTVSPropertyOp28
 70
     1
102
RTVSPropertyOp29
 70
     1
102
RTVSPropertyOp30
 70
     1
102
RTVSPropertyOp31
 70
     1
102
RTVSPropertyOp32
 70
     1
  0
XRECORD
  5
2C8
102
{ACAD_REACTORS
330
2C7
102
}
330
2C7
100
AcDbXrecord
280
     1
102
RTVSPropertyOp0
 70
     1
102
RTVSPropertyOp1
 70
     1
102
RTVSPropertyOp2
 70
     1
102
RTVSPropertyOp3
 70
     1
102
RTVSPropertyOp4
 70
     1
102
RTVSPropertyOp5
 70
     1
102
RTVSPropertyOp6
 70
     1
102
RTVSPropertyOp7
 70
     1
102
RTVSPropertyOp8
 70
     1
102
RTVSPropertyOp9
 70
     1
102
RTVSPropertyOp10
 70
     1
102
RTVSPropertyOp11
 70
     1
102
RTVSPropertyOp12
 70
     1
102
RTVSPropertyOp13
 70
     1
102
RTVSPropertyOp14
 70
     1
102
RTVSPropertyOp15
 70
     1
102
RTVSPropertyOp16
 70
     1
102
RTVSPropertyOp17
 70
     1
102
RTVSPropertyOp18
 70
     1
102
RTVSPropertyOp19
 70
     1
102
RTVSPropertyOp20
 70
     1
102
RTVSPropertyOp21
 70
     1
102
RTVSPropertyOp22
 70
     1
102
RTVSPropertyOp23
 70
     1
102
RTVSPropertyOp24
 70
     1
102
RTVSPropertyOp25
 70
     1
102
RTVSPropertyOp26
 70
     1
102
RTVSPropertyOp27
 70
     1
102
RTVSPropertyOp28
 70
     1
102
RTVSPropertyOp29
 70
     1
102
RTVSPropertyOp30
 70
     1
102
RTVSPropertyOp31
 70
     1
102
RTVSPropertyOp32
 70
     1
  0
XRECORD
  5
2D0
102
{ACAD_REACTORS
330
2CF
102
}
330
2CF
100
AcDbXrecord
280
     1
102
RTVSPropertyOp0
 70
     1
102
RTVSPropertyOp1
 70
     1
102
RTVSPropertyOp2
 70
     1
102
RTVSPropertyOp3
 70
     1
102
RTVSPropertyOp4
 70
     1
102
RTVSPropertyOp5
 70
     1
102
RTVSPropertyOp6
 70
     1
102
RTVSPropertyOp7
 70
     1
102
RTVSPropertyOp8
 70
     1
102
RTVSPropertyOp9
 70
     1
102
RTVSPropertyOp10
 70
     1
102
RTVSPropertyOp11
 70
     1
102
RTVSPropertyOp12
 70
     1
102
RTVSPropertyOp13
 70
     1
102
RTVSPropertyOp14
 70
     1
102
RTVSPropertyOp15
 70
     1
102
RTVSPropertyOp16
 70
     1
102
RTVSPropertyOp17
 70
     1
102
RTVSPropertyOp18
 70
     1
102
RTVSPropertyOp19
 70
     1
102
RTVSPropertyOp20
 70
     1
102
RTVSPropertyOp21
 70
     1
102
RTVSPropertyOp22
 70
     1
102
RTVSPropertyOp23
 70
     1
102
RTVSPropertyOp24
 70
     1
102
RTVSPropertyOp25
 70
     1
102
RTVSPropertyOp26
 70
     1
102
RTVSPropertyOp27
 70
     1
102
RTVSPropertyOp28
 70
     1
102
RTVSPropertyOp29
 70
     1
102
RTVSPropertyOp30
 70
     1
102
RTVSPropertyOp31
 70
     1
102
RTVSPropertyOp32
 70
     1
  0
XRECORD
  5
2C4
102
{ACAD_REACTORS
330
2C3
102
}
330
2C3
100
AcDbXrecord
280
     1
102
RTVSPropertyOp0
 70
     1
102
RTVSPropertyOp1
 70
     1
102
RTVSPropertyOp2
 70
     1
102
RTVSPropertyOp3
 70
     1
102
RTVSPropertyOp4
 70
     1
102
RTVSPropertyOp5
 70
     1
102
RTVSPropertyOp6
 70
     1
102
RTVSPropertyOp7
 70
     1
102
RTVSPropertyOp8
 70
     1
102
RTVSPropertyOp9
 70
     1
102
RTVSPropertyOp10
 70
     1
102
RTVSPropertyOp11
 70
     1
102
RTVSPropertyOp12
 70
     1
102
RTVSPropertyOp13
 70
     1
102
RTVSPropertyOp14
 70
     1
102
RTVSPropertyOp15
 70
     1
102
RTVSPropertyOp16
 70
     1
102
RTVSPropertyOp17
 70
     1
102
RTVSPropertyOp18
 70
     1
102
RTVSPropertyOp19
 70
     1
102
RTVSPropertyOp20
 70
     1
102
RTVSPropertyOp21
 70
     1
102
RTVSPropertyOp22
 70
     1
102
RTVSPropertyOp23
 70
     1
102
RTVSPropertyOp24
 70
     1
102
RTVSPropertyOp25
 70
     1
102
RTVSPropertyOp26
 70
     1
102
RTVSPropertyOp27
 70
     1
102
RTVSPropertyOp28
 70
     1
102
RTVSPropertyOp29
 70
     1
102
RTVSPropertyOp30
 70
     1
102
RTVSPropertyOp31
 70
     1
102
RTVSPropertyOp32
 70
     1
  0
XRECORD
  5
2C6
102
{ACAD_REACTORS
330
2C5
102
}
330
2C5
100
AcDbXrecord
280
     1
102
RTVSPropertyOp0
 70
     1
102
RTVSPropertyOp1
 70
     1
102
RTVSPropertyOp2
 70
     1
102
RTVSPropertyOp3
 70
     1
102
RTVSPropertyOp4
 70
     1
102
RTVSPropertyOp5
 70
     1
102
RTVSPropertyOp6
 70
     1
102
RTVSPropertyOp7
 70
     1
102
RTVSPropertyOp8
 70
     1
102
RTVSPropertyOp9
 70
     1
102
RTVSPropertyOp10
 70
     1
102
RTVSPropertyOp11
 70
     1
102
RTVSPropertyOp12
 70
     1
102
RTVSPropertyOp13
 70
     1
102
RTVSPropertyOp14
 70
     1
102
RTVSPropertyOp15
 70
     1
102
RTVSPropertyOp16
 70
     1
102
RTVSPropertyOp17
 70
     1
102
RTVSPropertyOp18
 70
     1
102
RTVSPropertyOp19
 70
     1
102
RTVSPropertyOp20
 70
     1
102
RTVSPropertyOp21
 70
     1
102
RTVSPropertyOp22
 70
     1
102
RTVSPropertyOp23
 70
     1
102
RTVSPropertyOp24
 70
     1
102
RTVSPropertyOp25
 70
     1
102
RTVSPropertyOp26
 70
     1
102
RTVSPropertyOp27
 70
     1
102
RTVSPropertyOp28
 70
     1
102
RTVSPropertyOp29
 70
     1
102
RTVSPropertyOp30
 70
     1
102
RTVSPropertyOp31
 70
     1
102
RTVSPropertyOp32
 70
     1
  0
XRECORD
  5
2CE
102
{ACAD_REACTORS
330
2CD
102
}
330
2CD
100
AcDbXrecord
280
     1
102
RTVSPropertyOp0
 70
     1
102
RTVSPropertyOp1
 70
     1
102
RTVSPropertyOp2
 70
     1
102
RTVSPropertyOp3
 70
     1
102
RTVSPropertyOp4
 70
     1
102
RTVSPropertyOp5
 70
     1
102
RTVSPropertyOp6
 70
     1
102
RTVSPropertyOp7
 70
     1
102
RTVSPropertyOp8
 70
     1
102
RTVSPropertyOp9
 70
     1
102
RTVSPropertyOp10
 70
     1
102
RTVSPropertyOp11
 70
     1
102
RTVSPropertyOp12
 70
     1
102
RTVSPropertyOp13
 70
     1
102
RTVSPropertyOp14
 70
     1
102
RTVSPropertyOp15
 70
     1
102
RTVSPropertyOp16
 70
     1
102
RTVSPropertyOp17
 70
     1
102
RTVSPropertyOp18
 70
     1
102
RTVSPropertyOp19
 70
     1
102
RTVSPropertyOp20
 70
     1
102
RTVSPropertyOp21
 70
     1
102
RTVSPropertyOp22
 70
     1
102
RTVSPropertyOp23
 70
     1
102
RTVSPropertyOp24
 70
     1
102
RTVSPropertyOp25
 70
     1
102
RTVSPropertyOp26
 70
     1
102
RTVSPropertyOp27
 70
     1
102
RTVSPropertyOp28
 70
     1
102
RTVSPropertyOp29
 70
     1
102
RTVSPropertyOp30
 70
     1
102
RTVSPropertyOp31
 70
     1
102
RTVSPropertyOp32
 70
     1
  0
XRECORD
  5
2B2
102
{ACAD_REACTORS
330
2B1
102
}
330
2B1
100
AcDbXrecord
280
     1
102
RTVSPropertyOp0
 70
     1
102
RTVSPropertyOp1
 70
     1
102
RTVSPropertyOp2
 70
     1
102
RTVSPropertyOp3
 70
     1
102
RTVSPropertyOp4
 70
     1
102
RTVSPropertyOp5
 70
     1
102
RTVSPropertyOp6
 70
     1
102
RTVSPropertyOp7
 70
     1
102
RTVSPropertyOp8
 70
     1
102
RTVSPropertyOp9
 70
     1
102
RTVSPropertyOp10
 70
     1
102
RTVSPropertyOp11
 70
     1
102
RTVSPropertyOp12
 70
     1
102
RTVSPropertyOp13
 70
     1
102
RTVSPropertyOp14
 70
     1
102
RTVSPropertyOp15
 70
     1
102
RTVSPropertyOp16
 70
     1
102
RTVSPropertyOp17
 70
     1
102
RTVSPropertyOp18
 70
     1
102
RTVSPropertyOp19
 70
     1
102
RTVSPropertyOp20
 70
     1
102
RTVSPropertyOp21
 70
     1
102
RTVSPropertyOp22
 70
     1
102
RTVSPropertyOp23
 70
     1
102
RTVSPropertyOp24
 70
     1
102
RTVSPropertyOp25
 70
     1
102
RTVSPropertyOp26
 70
     1
102
RTVSPropertyOp27
 70
     1
102
RTVSPropertyOp28
 70
     1
102
RTVSPropertyOp29
 70
     1
102
RTVSPropertyOp30
 70
     1
102
RTVSPropertyOp31
 70
     1
102
RTVSPropertyOp32
 70
     1
  0
XRECORD
  5
2B4
102
{ACAD_REACTORS
330
2B3
102
}
330
2B3
100
AcDbXrecord
280
     1
102
RTVSPropertyOp0
 70
     1
102
RTVSPropertyOp1
 70
     1
102
RTVSPropertyOp2
 70
     1
102
RTVSPropertyOp3
 70
     1
102
RTVSPropertyOp4
 70
     1
102
RTVSPropertyOp5
 70
     1
102
RTVSPropertyOp6
 70
     1
102
RTVSPropertyOp7
 70
     1
102
RTVSPropertyOp8
 70
     1
102
RTVSPropertyOp9
 70
     1
102
RTVSPropertyOp10
 70
     1
102
RTVSPropertyOp11
 70
     1
102
RTVSPropertyOp12
 70
     1
102
RTVSPropertyOp13
 70
     1
102
RTVSPropertyOp14
 70
     1
102
RTVSPropertyOp15
 70
     1
102
RTVSPropertyOp16
 70
     1
102
RTVSPropertyOp17
 70
     1
102
RTVSPropertyOp18
 70
     1
102
RTVSPropertyOp19
 70
     1
102
RTVSPropertyOp20
 70
     1
102
RTVSPropertyOp21
 70
     1
102
RTVSPropertyOp22
 70
     1
102
RTVSPropertyOp23
 70
     1
102
RTVSPropertyOp24
 70
     1
102
RTVSPropertyOp25
 70
     1
102
RTVSPropertyOp26
 70
     1
102
RTVSPropertyOp27
 70
     1
102
RTVSPropertyOp28
 70
     1
102
RTVSPropertyOp29
 70
     1
102
RTVSPropertyOp30
 70
     1
102
RTVSPropertyOp31
 70
     1
102
RTVSPropertyOp32
 70
     1
  0
XRECORD
  5
2B6
102
{ACAD_REACTORS
330
2B5
102
}
330
2B5
100
AcDbXrecord
280
     1
102
RTVSPropertyOp0
 70
     1
102
RTVSPropertyOp1
 70
     1
102
RTVSPropertyOp2
 70
     1
102
RTVSPropertyOp3
 70
     1
102
RTVSPropertyOp4
 70
     1
102
RTVSPropertyOp5
 70
     1
102
RTVSPropertyOp6
 70
     1
102
RTVSPropertyOp7
 70
     1
102
RTVSPropertyOp8
 70
     1
102
RTVSPropertyOp9
 70
     1
102
RTVSPropertyOp10
 70
     1
102
RTVSPropertyOp11
 70
     1
102
RTVSPropertyOp12
 70
     1
102
RTVSPropertyOp13
 70
     1
102
RTVSPropertyOp14
 70
     1
102
RTVSPropertyOp15
 70
     1
102
RTVSPropertyOp16
 70
     1
102
RTVSPropertyOp17
 70
     1
102
RTVSPropertyOp18
 70
     1
102
RTVSPropertyOp19
 70
     1
102
RTVSPropertyOp20
 70
     1
102
RTVSPropertyOp21
 70
     1
102
RTVSPropertyOp22
 70
     1
102
RTVSPropertyOp23
 70
     1
102
RTVSPropertyOp24
 70
     1
102
RTVSPropertyOp25
 70
     1
102
RTVSPropertyOp26
 70
     1
102
RTVSPropertyOp27
 70
     1
102
RTVSPropertyOp28
 70
     1
102
RTVSPropertyOp29
 70
     1
102
RTVSPropertyOp30
 70
     1
102
RTVSPropertyOp31
 70
     1
102
RTVSPropertyOp32
 70
     1
  0
XRECORD
  5
2B8
102
{ACAD_REACTORS
330
2B7
102
}
330
2B7
100
AcDbXrecord
280
     1
102
RTVSPropertyOp0
 70
     1
102
RTVSPropertyOp1
 70
     1
102
RTVSPropertyOp2
 70
     1
102
RTVSPropertyOp3
 70
     1
102
RTVSPropertyOp4
 70
     1
102
RTVSPropertyOp5
 70
     1
102
RTVSPropertyOp6
 70
     1
102
RTVSPropertyOp7
 70
     1
102
RTVSPropertyOp8
 70
     1
102
RTVSPropertyOp9
 70
     1
102
RTVSPropertyOp10
 70
     1
102
RTVSPropertyOp11
 70
     1
102
RTVSPropertyOp12
 70
     1
102
RTVSPropertyOp13
 70
     1
102
RTVSPropertyOp14
 70
     1
102
RTVSPropertyOp15
 70
     1
102
RTVSPropertyOp16
 70
     1
102
RTVSPropertyOp17
 70
     1
102
RTVSPropertyOp18
 70
     1
102
RTVSPropertyOp19
 70
     1
102
RTVSPropertyOp20
 70
     1
102
RTVSPropertyOp21
 70
     1
102
RTVSPropertyOp22
 70
     1
102
RTVSPropertyOp23
 70
     1
102
RTVSPropertyOp24
 70
     1
102
RTVSPropertyOp25
 70
     1
102
RTVSPropertyOp26
 70
     1
102
RTVSPropertyOp27
 70
     1
102
RTVSPropertyOp28
 70
     1
102
RTVSPropertyOp29
 70
     1
102
RTVSPropertyOp30
 70
     1
102
RTVSPropertyOp31
 70
     1
102
RTVSPropertyOp32
 70
     1
  0
XRECORD
  5
2CC
102
{ACAD_REACTORS
330
2CB
102
}
330
2CB
100
AcDbXrecord
280
     1
102
RTVSPropertyOp0
 70
     1
102
RTVSPropertyOp1
 70
     1
102
RTVSPropertyOp2
 70
     1
102
RTVSPropertyOp3
 70
     1
102
RTVSPropertyOp4
 70
     1
102
RTVSPropertyOp5
 70
     1
102
RTVSPropertyOp6
 70
     1
102
RTVSPropertyOp7
 70
     1
102
RTVSPropertyOp8
 70
     1
102
RTVSPropertyOp9
 70
     1
102
RTVSPropertyOp10
 70
     1
102
RTVSPropertyOp11
 70
     1
102
RTVSPropertyOp12
 70
     1
102
RTVSPropertyOp13
 70
     1
102
RTVSPropertyOp14
 70
     1
102
RTVSPropertyOp15
 70
     1
102
RTVSPropertyOp16
 70
     1
102
RTVSPropertyOp17
 70
     1
102
RTVSPropertyOp18
 70
     1
102
RTVSPropertyOp19
 70
     1
102
RTVSPropertyOp20
 70
     1
102
RTVSPropertyOp21
 70
     1
102
RTVSPropertyOp22
 70
     1
102
RTVSPropertyOp23
 70
     1
102
RTVSPropertyOp24
 70
     1
102
RTVSPropertyOp25
 70
     1
102
RTVSPropertyOp26
 70
     1
102
RTVSPropertyOp27
 70
     1
102
RTVSPropertyOp28
 70
     1
102
RTVSPropertyOp29
 70
     1
102
RTVSPropertyOp30
 70
     1
102
RTVSPropertyOp31
 70
     1
102
RTVSPropertyOp32
 70
     1
  0
XRECORD
  5
2C2
102
{ACAD_REACTORS
330
2C1
102
}
330
2C1
100
AcDbXrecord
280
     1
102
RTVSPropertyOp0
 70
     1
102
RTVSPropertyOp1
 70
     1
102
RTVSPropertyOp2
 70
     1
102
RTVSPropertyOp3
 70
     1
102
RTVSPropertyOp4
 70
     1
102
RTVSPropertyOp5
 70
     1
102
RTVSPropertyOp6
 70
     1
102
RTVSPropertyOp7
 70
     1
102
RTVSPropertyOp8
 70
     1
102
RTVSPropertyOp9
 70
     1
102
RTVSPropertyOp10
 70
     1
102
RTVSPropertyOp11
 70
     1
102
RTVSPropertyOp12
 70
     1
102
RTVSPropertyOp13
 70
     1
102
RTVSPropertyOp14
 70
     1
102
RTVSPropertyOp15
 70
     1
102
RTVSPropertyOp16
 70
     1
102
RTVSPropertyOp17
 70
     1
102
RTVSPropertyOp18
 70
     1
102
RTVSPropertyOp19
 70
     1
102
RTVSPropertyOp20
 70
     1
102
RTVSPropertyOp21
 70
     1
102
RTVSPropertyOp22
 70
     1
102
RTVSPropertyOp23
 70
     1
102
RTVSPropertyOp24
 70
     1
102
RTVSPropertyOp25
 70
     1
102
RTVSPropertyOp26
 70
     1
102
RTVSPropertyOp27
 70
     1
102
RTVSPropertyOp28
 70
     1
102
RTVSPropertyOp29
 70
     1
102
RTVSPropertyOp30
 70
     1
102
RTVSPropertyOp31
 70
     1
102
RTVSPropertyOp32
 70
     1
  0
XRECORD
  5
2CA
102
{ACAD_REACTORS
330
2C9
102
}
330
2C9
100
AcDbXrecord
280
     1
102
RTVSPropertyOp0
 70
     1
102
RTVSPropertyOp1
 70
     1
102
RTVSPropertyOp2
 70
     1
102
RTVSPropertyOp3
 70
     1
102
RTVSPropertyOp4
 70
     1
102
RTVSPropertyOp5
 70
     1
102
RTVSPropertyOp6
 70
     1
102
RTVSPropertyOp7
 70
     1
102
RTVSPropertyOp8
 70
     1
102
RTVSPropertyOp9
 70
     1
102
RTVSPropertyOp10
 70
     1
102
RTVSPropertyOp11
 70
     1
102
RTVSPropertyOp12
 70
     1
102
RTVSPropertyOp13
 70
     1
102
RTVSPropertyOp14
 70
     1
102
RTVSPropertyOp15
 70
     1
102
RTVSPropertyOp16
 70
     1
102
RTVSPropertyOp17
 70
     1
102
RTVSPropertyOp18
 70
     1
102
RTVSPropertyOp19
 70
     1
102
RTVSPropertyOp20
 70
     1
102
RTVSPropertyOp21
 70
     1
102
RTVSPropertyOp22
 70
     1
102
RTVSPropertyOp23
 70
     1
102
RTVSPropertyOp24
 70
     1
102
RTVSPropertyOp25
 70
     1
102
RTVSPropertyOp26
 70
     1
102
RTVSPropertyOp27
 70
     1
102
RTVSPropertyOp28
 70
     1
102
RTVSPropertyOp29
 70
     1
102
RTVSPropertyOp30
 70
     1
102
RTVSPropertyOp31
 70
     1
102
RTVSPropertyOp32
 70
     1
  0
ENDSEC
  0
EOF
